Oops, an error
Loading. Please wait.
We have an official Stolen Dance tab made by UG professional guitarists. Check out the tab »
×

Stolen Dance tab

version 3
version 3

Whole song

  • This one has the arpeggio part that the other vers... Show more
  • All of the other tabs that I saw only had bar-chor... Show more

Interactive

Video

2,989 views 15 this week
1 commentread comment
1 2 3 4 5
x 9
add to favorites
×
Save as Personal and add changes to this tab that will be seen only by you. Learn more ›
×
You can save this tab as Personal to edit and correct it or add notes. All changes will be seen only by you. Learn more »
launch autoscroll
font size
0
reset
how to read this tab
guitar tuner
edit
Autoscroll
slow
fast
+/-
esc
set tempo
stop
Author
Difficulty
About this tab version
This one has the arpeggio part that the other versions do not, as well as a few corrections. Was this info helpful? Yes No
-------------------------------------------------------------------------------
                             SONG NAME - Band Name
-------------------------------------------------------------------------------
Tabbed by: Brendan
E-mail: brendanb@mail.com

Tuning: Standard
Tempo = 114

u = upbeat 

Intro: 6X
       u    u     u     u          u    u    u    u         u    u    u    u
e|----------------------------|------------------------|-------------------------|
B|----------4-----2-----2-----|----0----0----0----0----|----7----7----7----7-----|
G|-----4----4-----3-----3-----|----1----1----1----1----|----8----8----8----8-----|
D|----------6-----4-----4-----|----2----2----2----2----|----9----9----9----9-----|
A|---6------------------------|------------------------|-------------------------|
E|-4--------4-----2-----2-----|----0----0----0----0----|----7----7----7----7-----|

      u    u    u    u      play this after the last time     u    u    u
e|------------------------||------------------------|------------------------|
B|----8----8----8----8----||----8----8----8----8----|----8----8----8----8----|
G|----8----8----8----8----||----8----8----8----8----|----8----8----8----8----|
D|----8----8----8----8----||----8----8----8----8----|----8----8----8----8----|
A|----6----6----6----6----||----6----6----6----6----|----6----6----6----6----|
E|------------------------||------------------------|------------------------|


Chorus: 4X
      u    u    u    u         u    u    u    u         u    u    u    u
e|------------------------|------------------------|---------------------------|
B|----9----9----9----9----|----7----7----7----7----|----8----8----8----8-------|
G|----9----9----9----9----|----8----8----8----8----|----8----8----8----8-------|
D|----9----9----9----9----|----9----9----9----9----|----8----8----8----8-------|
A|----7----7----7----7----|------------------------|----6----6----6----6-------|
E|------------------------|----7----7----7----7----|---------------------------|

First three times play this:
e|------------------------|
B|----4----4----2----2----|
G|----4----4----3----3----|
D|----6----6----4----4----|
A|------------------------|
E|----4----4----2----2----|

Fourth time play this:         u    u    u    u         u    u    u    u
e|------------------------|------------------------|---------------------------|
B|----4----4----4----4----|----4----4----4----4----|----4----4----2----2-------|
G|----4----4----4----4----|----4----4----4----4----|----4----4----3----3-------|
D|----6----6----6----6----|----6----6----6----6----|----6----6----4----4-------|
A|------------------------|------------------------|---------------------------|
E|----4----4----4----4----|----4----4----4----4----|----4----4----2----2-------|

Arpeggios: 2X

e|---------------------------|---------------------------|---------------------------|
B|---------------------------|---------------------------|---------------------------|
G|------4-----------3--------|------1-----------1--------|------8-----------8--------|
D|--------6---6-------4---4--|--------2---2-------2---2--|--------9---9-------9---9--|
A|----6-----6-----4-----4----|----2-----2-----2-----2----|----9-----9-----9-----9----|
E|--4-----------2------------|--0-----------0------------|--7-----------7------------|

e|---------------------------|
B|------8-----------8--------|
G|--------8---8-------8---8--|
D|----8-----8-----8-----8----|
A|--6-----------6------------|
E|---------------------------|

Intro: 4X
       u    u     u     u          u    u    u    u         u    u    u    u
e|----------------------------|------------------------|-------------------------|
B|----------4-----2-----2-----|----0----0----0----0----|----7----7----7----7-----|
G|-----4----4-----3-----3-----|----1----1----1----1----|----8----8----8----8-----|
D|----------6-----4-----4-----|----2----2----2----2----|----9----9----9----9-----|
A|---6------------------------|------------------------|-------------------------|
E|-4--------4-----2-----2-----|----0----0----0----0----|----7----7----7----7-----|

      u    u    u    u      play this after the last time     u    u    u
e|------------------------||------------------------|------------------------|
B|----8----8----8----8----||----8----8----8----8----|----8----8----8----8----|
G|----8----8----8----8----||----8----8----8----8----|----8----8----8----8----|
D|----8----8----8----8----||----8----8----8----8----|----8----8----8----8----|
A|----6----6----6----6----||----6----6----6----6----|----6----6----6----6----|
E|------------------------||------------------------|------------------------|

Chorus: 4X
      u    u    u    u         u    u    u    u         u    u    u    u
e|------------------------|------------------------|---------------------------|
B|----9----9----9----9----|----7----7----7----7----|----8----8----8----8-------|
G|----9----9----9----9----|----8----8----8----8----|----8----8----8----8-------|
D|----9----9----9----9----|----9----9----9----9----|----8----8----8----8-------|
A|----7----7----7----7----|------------------------|----6----6----6----6-------|
E|------------------------|----7----7----7----7----|---------------------------|

First three times play this:
e|------------------------|
B|----4----4----2----2----|
G|----4----4----3----3----|
D|----6----6----4----4----|
A|------------------------|
E|----4----4----2----2----|

Fourth time play this:         u    u    u    u         u    u    u    u
e|------------------------|------------------------|---------------------------|
B|----4----4----4----4----|----4----4----4----4----|----4----4----2----2-------|
G|----4----4----4----4----|----4----4----4----4----|----4----4----3----3-------|
D|----6----6----6----6----|----6----6----6----6----|----6----6----4----4-------|
A|------------------------|------------------------|---------------------------|
E|----4----4----4----4----|----4----4----4----4----|----4----4----2----2-------|

Arpeggios: 2X

e|---------------------------|---------------------------|---------------------------|
B|---------------------------|---------------------------|---------------------------|
G|------4-----------3--------|------1-----------1--------|------8-----------8--------|
D|--------6---6-------4---4--|--------2---2-------2---2--|--------9---9-------9---9--|
A|----6-----6-----4-----4----|----2-----2-----2-----2----|----9-----9-----9-----9----|
E|--4-----------2------------|--0-----------0------------|--7-----------7------------|

e|---------------------------|
B|------8-----------8--------|
G|--------8---8-------8---8--|
D|----8-----8-----8-----8----|
A|--6-----------6------------|
E|---------------------------|

Chorus: 4X
      u    u    u    u         u    u    u    u         u    u    u    u
e|------------------------|------------------------|---------------------------|
B|----9----9----9----9----|----7----7----7----7----|----8----8----8----8-------|
G|----9----9----9----9----|----8----8----8----8----|----8----8----8----8-------|
D|----9----9----9----9----|----9----9----9----9----|----8----8----8----8-------|
A|----7----7----7----7----|------------------------|----6----6----6----6-------|
E|------------------------|----7----7----7----7----|---------------------------|

First three times play this:
e|------------------------|
B|----4----4----2----2----|
G|----4----4----3----3----|
D|----6----6----4----4----|
A|------------------------|
E|----4----4----2----2----|

Fourth time play this:         u    u    u    u         u    u    u    u
e|------------------------|------------------------|---------------------------|
B|----4----4----4----4----|----4----4----4----4----|----4----4----2----2-------|
G|----4----4----4----4----|----4----4----4----4----|----4----4----3----3-------|
D|----6----6----6----6----|----6----6----6----6----|----6----6----4----4-------|
A|------------------------|------------------------|---------------------------|
E|----4----4----4----4----|----4----4----4----4----|----4----4----2----2-------|

Arpeggios: 2X

e|---------------------------|---------------------------|---------------------------|
B|---------------------------|---------------------------|---------------------------|
G|------4-----------3--------|------1-----------1--------|------8-----------8--------|
D|--------6---6-------4---4--|--------2---2-------2---2--|--------9---9-------9---9--|
A|----6-----6-----4-----4----|----2-----2-----2-----2----|----9-----9-----9-----9----|
E|--4-----------2------------|--0-----------0------------|--7-----------7------------|

e|---------------------------|
B|------8-----------8--------|
G|--------8---8-------8---8--|
D|----8-----8-----8-----8----|
A|--6-----------6------------|
E|---------------------------|

Intro: 3X   Fade out 
       u    u     u     u          u    u    u    u         u    u    u    u
e|----------------------------|------------------------|-------------------------|
B|----------4-----2-----2-----|----0----0----0----0----|----7----7----7----7-----|
G|-----4----4-----3-----3-----|----1----1----1----1----|----8----8----8----8-----|
D|----------6-----4-----4-----|----2----2----2----2----|----9----9----9----9-----|
A|---6------------------------|------------------------|-------------------------|
E|-4--------4-----2-----2-----|----0----0----0----0----|----7----7----7----7-----|

      u    u    u    u      
e|------------------------||
B|----8----8----8----8----||
G|----8----8----8----8----||
D|----8----8----8----8----||
A|----6----6----6----6----||
E|------------------------||


************************************

Intro 6X
Chorus 4X
Arpeggios 2X
Intro 4X
Chorus 4X
Arpeggios 2X
Chorus 4X
Arpeggios 4X
Intro 3X with fadeout 

************************************

            
            
Suggest correction
Creating personal tab
Creating personal tab
You can edit any tab online and save it as your Personal.

You can edit, replace or remove any tab part or add personal notes – all changes will be seen only by you.

Personal tabs can be accessed anytime from any device, even offline.
Learn more »
comments
print report bad tab
1 comment total.
0 reply
oliverthompson5 55 Jun 20, 2015 10:46 PM

Spot on! Sounds absolutely perfect. I don't know why this hasn't had more ratings or views!?!

guest
You may want to rate the tab now too:
select rating
Wanna post a correction for this tab? Suggest correction