Oops, an error
Loading. Please wait.
We have an official Stolen Dance tab made by UG professional guitarists. Check out the tab »
×

Stolen Dance tab

version 4
version 4

Whole song

  • This one has the arpeggio part that the other vers... Show more
  • All of the other tabs that I saw only had bar-chor... Show more

Interactive

Video

1,116 views 6 this week
no commentswrite comment
1 2 3 4 5
2 more votes to show rating
add to favorites
×
Save as Personal and add changes to this tab that will be seen only by you. Learn more ›
×
You can save this tab as Personal to edit and correct it or add notes. All changes will be seen only by you. Learn more »
launch autoscroll
font size
0
reset
how to read this tab
guitar tuner
edit
Autoscroll
slow
fast
+/-
esc
set tempo
stop
Author
Difficulty
About this tab version
All of the other tabs that I saw only had bar-chord versions, but that's not how the song's actually played. And I believe that my tab is unique and very accurate. Was this info helpful? Yes No
Intro/Verse
e|-----------------------------------------------------|
B|--------------------------6--6--6--6--10--10--10--10-|
G|--6--6--5--5--3--3--3--3--6--6--6--6--10--10--10--10-|
D|--8--8--6--6--4--4--4--4-----------------------------|
A|-----------------------------------------------------|
E|-----------------------------------------------------|

e|-----------------------------------------------------|
B|--------------------------6--6--6--6--10--10--10--10-|
G|--6--6--5--5--3--3--3--3--6--6--6--6--10--10--10--10-|
D|--8--8--6--6--4--4--4--4-----------------------------|
A|-----------------------------------------------------|
E|-----------------------------------------------------|

e|-----------------------------------------------------|
B|--------------------------6--6--6--6--10--10--10--10-|
G|--6--6--5--5--3--3--3--3--6--6--6--6--10--10--10--10-|
D|--8--8--6--6--4--4--4--4-----------------------------|
A|-----------------------------------------------------|
E|-----------------------------------------------------|

e|--------------------------------------------------------------------------------------|
B|--------------------------6--6--6--6--10--10--10--10--10--10--10--10--10--10--10--10--|
G|--6--6--5--5--3--3--3--3--6--6--6--6--10--10--10--10--10--10--10--10--10--10--10--10--|
D|--8--8--6--6--4--4--4--4--------------------------------------------------------------|
A|--------------------------------------------------------------------------------------|
E|--------------------------------------------------------------------------------------|

Chorus
e|---------------------------------------------------------------------|
B|---------------------------------------------------------------------|
G|--11--11--11--11--10--10--10--10--8--8--8--8--10--10--8--8-----------|
D|--11--11--11--11--11--11--11--11-10-10-10-10--11--11-10-10-----------|
A|---------------------------------------------------------------------|
E|---------------------------------------------------------------------|

(Back to intro after this, then repeat as necessary)
e|--------------------------------------------------------------------------------------------|
B|--------------------------------------------------------------------------------------------|
G|--11--11--11--11--10--10--10--10--8--8--8--8--10--10--10--10--10--10--10--10--10--10--8--8--|
D|--11--11--11--11--11--11--11--11-10-10-10-10--11--11--11--11--11--11--11--11--11--11-10-10--|
A|--------------------------------------------------------------------------------------------|
E|--------------------------------------------------------------------------------------------|

            
            
Suggest correction
Creating personal tab
Creating personal tab
You can edit any tab online and save it as your Personal.

You can edit, replace or remove any tab part or add personal notes – all changes will be seen only by you.

Personal tabs can be accessed anytime from any device, even offline.
Learn more »
Give kudos to tab author, rate the tab!
1 2 3 4 5
comments
print report bad tab
guest
You may want to rate the tab now too:
select rating
Wanna post a correction for this tab? Suggest correction