Oops, an error
Loading. Please wait.

Highway Donkey tab

version 1
version 1

Whole song

Interactive

1,753 views 1 this week
3 commentsread comments
1 2 3 4 5
1 last vote to show rating
add to favorites
×
Save as Personal and add changes to this tab that will be seen only by you. Learn more ›
×
You can save this tab as Personal to edit and correct it or add notes. All changes will be seen only by you. Learn more »
launch autoscroll
font size
0
reset
how to read this tab
guitar tuner
edit
Autoscroll
slow
fast
+/-
esc
set tempo
stop
HIGHWAY DONKEY - Millencolin

Tabbed by: Frank Rank Pank
Email: franky_holdar@hotmail.com

^=palm-muted

Intro x2
e|--------------------------------------------------------------------------------|
B|--------------------------------------------------------------------------------|
G|--14-14-14------11-12-11-12-11-12-------11-12-11-12-11-12------11-12-11-12------|
D|--14-14-14--9---11-12-11-12-11-12--12---11-12-11-12-11-12--9---11-12-11-12--12--|
A|--12-12-12--9---9--10-9--10-9--10--12---9--10-9--10-9--10--9---9--10-9--10--12--|
E|------------7----------------------10----------------------7----------------10--|

Verse A x2 ( When I was younger...)Play all once time.  
e|--------------------------|
B|--------------------------|
G|-------------12--11-9--7--|
D|--9----12----x---x--x--x--|
A|--9----12----10--9--7--5--|
E|--7----10-----------------|

Intro x1

Verse B x2 ( Insecurity, no confidence...)          
e|--x8---x8----x4--x4-x4-x4-|
B|--^----^------------------|
G|-------------12--11-9--7--|
D|--9----12----x---x--x--x--|
A|--9----12----10--9--7--5--|
E|--7----10-----------------|

Chours x2 ( I'm not going...)
e|---x8---x8---x8---x4-x4---|
B|--------------------------|
G|---7---------9-------9----|
D|---7----7----9----9--9----|
A|---5----7----7----9--7----|
E|--------5---------7-------|

Intro x1

Verse B x2 ( Just because...)

Chorus x2

Solo
e|------------------------------------------------10-----------------------------------------------------------------10----------------|
B|--9b11--9b11--9b11--9----------------------9-11-----12-11-9--11-9----11p9----------9-11-9-11-9-11-9-11-11-12-11-12----12p11p9--------|
G|------------------------12-11-12-9---11-12------------------------12------12-9--12--------------------------------------------11b12--|
D|-------------------------------------------------------------------------------------------------------------------------------------|
A|-------------------------------------------------------------------------------------------------------------------------------------|
E|-------------------------------------------------------------------------------------------------------------------------------------|

Chorus x2

That's all. Final part of solo is hard to tab if anyone have one better send
it to me.

            
            
Suggest correction
Creating personal tab
Creating personal tab
You can edit any tab online and save it as your Personal.

You can edit, replace or remove any tab part or add personal notes – all changes will be seen only by you.

Personal tabs can be accessed anytime from any device, even offline.
Learn more »
Give kudos to tab author, rate the tab!
1 2 3 4 5
comments
print report bad tab
3 comments total.
0 reply
MrKnister 111 Jun 19, 2014 09:46 PM, edited on June 20 2014, 01:50 am

...deleted

0 reply
MrKnister 111 Jun 19, 2014 09:49 PM, edited on June 20 2014, 01:51 am

...sorry, again my mistake.

0 reply
MrKnister 111 Jun 19, 2014 09:50 PM

Intro

e|------------------------------------|
B|------------------------------------|
G|--14-14-14------11-12-11-12-11-12---|
D|--14-14-14--9---11-12-11-12-11-12---|
A|--12-12-12--9---9--10-9--10-9--10---|
E|------------7-----------------------|

e|-------------------------------------|
B|-------------------------------------|
G|--14-14-14-------11-12-11-12-11-12---|
D|--14-14-14--12---11-12-11-12-11-12---|
A|--12-12-12--12---9--10-9--10-9--10---|
E|------------10-----------------------|

guest
Wanna post a correction for this tab? Suggest correction