Oops, an error
Loading. Please wait.

Home From Home tab

version 1
version 1

Whole song

Interactive

486 views 1 this week
2 commentsread comments
1 2 3 4 5
x 3
add to favorites
×
Save as Personal and add changes to this tab that will be seen only by you. Learn more ›
×
You can save this tab as Personal to edit and correct it or add notes. All changes will be seen only by you. Learn more »
launch autoscroll
font size
0
reset
how to read this tab
guitar tuner
edit
Autoscroll
slow
fast
+/-
esc
set tempo
stop
Millencolin - Home from Home - Home from Home              

Chords used

   A  D  E  A*
e---------------------------
B---------------------------
G-----------9---------------
D-----7--9--7---------------
A--7--5--7------------------
E--5------------------------


[INTRO]:
A A A A A A E E (6x)

[VERSE I]:
A (let ring)


[PRE-CHORUS]:
Guitar I
A*

Guitar II plays the following
Riff:

e----------------------------------------
B----------------------------------------
G--------------7----------(9)------------
D-7-9--------7---9-7----9----(11)-(9-7)-- 
A-----9-7--------------------------------
E----------------------------------------
              second time without notes in brackets

[CHROUS]: (2x)
A D E A 

(similiar to) INTRO:
A A E E A A

-----------------------------------------

[VERSE II]:
d  means dowstroke
u  means upstroke
pm means palm muted

A*     A*     A*(pm) A*(pm) A*(pm)  
d------d------d------u------d----- 


Guitar I plays 
Riff

[CHORUS] (4x)


[BRIDGE]
???

[INTRO]

[CHORUS] (8x)

end with [INTRO]

            
            
Suggest correction
Creating personal tab
Creating personal tab
You can edit any tab online and save it as your Personal.

You can edit, replace or remove any tab part or add personal notes – all changes will be seen only by you.

Personal tabs can be accessed anytime from any device, even offline.
Learn more »
Give kudos to tab author, rate the tab!
1 2 3 4 5
comments
print report bad tab
2 comments total.
0 reply
citizen erased 0 Apr 23, 2002 08:00 PM

the intro and chorus work very well, im not all 2 sure about the guitar 2 riff tho and a solo would be nice

0 reply
keal88 0 Jun 28, 2002 08:00 PM

The intro is all good, except its full powerchords:
e-
B----------------
G-------------9-9
D-7-7-7-7-7-7-9-9
A-7-7-7-7-7-7-7-7
E-5-5-5-5-5-5----

and ya, a solo would be nice.

guest
Wanna post a correction for this tab? Suggest correction