Oops, an error
Loading. Please wait.

Man Or Mouse bass

version 2
version 2

Whole song

Interactive

1,095 views 3 this week
1 commentread comment
1 2 3 4 5
x 3
add to favorites
×
Save as Personal and add changes to this tab that will be seen only by you. Learn more ›
×
You can save this tab as Personal to edit and correct it or add notes. All changes will be seen only by you. Learn more »
launch autoscroll
font size
0
reset
guitar tuner
edit
Autoscroll
slow
fast
+/-
esc
set tempo
stop
Author
Difficulty
Artist   - Millencolin
Song     - Man or Mouse
Album    - Home From Home
Tabber   - Xero-P
Tunning  - Standard (E,A,D,G,B,E)

Hola, que tal, ésta es mi versión de Man Or Mouse de Millencolin, los sonidos salen a la 
¡Por favor votad!

Hi, whats up? This is my version of Man or Mouse by Millencolin, the sounds like 100% 
Please rate it!

> slide up
< slide down

--Intro--
G|-------------------------------|
D|-------------------------------|
A|-5-5-5-5-5-5-5-5-5<<<<<<<<<<<0-|
E|-------------------------------|

--Pre-Verse--
lyric-> "Yeah, yeah, yeah, yeah!"
G|---------------------------------|
D|---------------------------------|
A|-5555555-3333333-----------------|
E|-----------------3333333-1111111-| x3

G|-------------------| ------------------|
D|-------------------| ------------------|
A|-555-3-33----------| --5555-5<<<<<<0---|
E|---------3-33-1-11-| ------------------|x2

--Verse--
lyric->"Hear me, I sound like a beettle..."
G|---------------------------------|
D|---------------------------------|
A|-5--555-3333333------------------|
E|-----------------3333333-1-11111-| x4

--Pre-Chorus--
lyric->"like a mouse follows the flute..."
G|------------------------------------|
D|------------------------------------|
A|------------------0>>88888888888888-|
E|---111111111111111------------------|

--Chorus--
lyric->"Mouse more than Man, yes I am"
G|-----------------------------------------------------|
D|-----------------------------------------------------|
A|-555555555550233333333333335-----------35---------02-|
E|----------------------------33333333333--111111111---|

G|-----------------------------------------------------|
D|-----------------------------------------------------|
A|-555555555550233333333333335-----------35------------|
E|----------------------------33333333333--1<0---------|

--Verse--
lyric->"See me as a chameleon, a cheap shot"
G|-----------------------------------|
D|-----------------------------------|
A|-12>>5555-3333333------------------|
E|-------------------3333333-1-11111-|

G|-----------------------------------|
D|-----------------------------------|
A|-5--55555-3333333------------------|
E|-------------------3333333-1-11111-|x3

Pre-Chorus:
lyric->"So whatever you want I'll do"
G|------------------------------------|
D|------------------------------------|
A|------------------0>>88888888888888-|
E|---111111111111111------------------|

Chorus: "Mouse more than Man, yes I am"
G|-------------------------------------------------------|
D|-------------------------------------------------------|
A|-555555555550233333333333335-----------35----------(02)|< "Yeah, yeah, yeah, yeah!"
G|---------------------------------|
D|---------------------------------|
A|-5555555-3333333-----------------|
E|-----------------3333333-1111111-| x3

G|-------------------|
D|-------------------|
A|-555-3-33----------|
E|---------3-33-1-11-|

--Pre-Chorus--
lyric->"Just like a mouse follows the flute..."
G|-----------------------------------------------------|
D|-----------------------------------------------------|
A|------------------5>>12-12-12-12-12<<10-10-10<<7-7-7-|
E|---555555555555555-----------------------------------|

--Bass solo and chorus--
lyric->"So no more, sound like a beetle..."
G|-------------------------------------------------------|
D|-------------------------------------------------------|
A|-555555555550233333333333335-----------35-----------02-|
E|----------------------------33333333333--11111111111---| x8

Last Pre-Verse
lyric->"Yeah, yeah, yeah, yeah!"
G|---------------------------------|
D|---------------------------------|
A|-5555555-3333333-----------------|
E|-----------------3333333-1111111-| x3

Ending
G|-------------------|
D|-------------------|
A|-555-3-33----------|
E|---------3-33-1-11-| x3

G|-----------------------|
D|-----------------------|
A|-5-5-5-5-5<<<<<<<<<<<0-|
E|-----------------------| x2

Im sure that is 100% correct.
The song is for beginners/mediums bassists.
It´s a great song to learn.
Good Luck!! and have a great time playing it!

Xero-P 31-07-2006

            
            
Suggest correction
Creating personal tab
Creating personal tab
You can edit any tab online and save it as your Personal.

You can edit, replace or remove any tab part or add personal notes – all changes will be seen only by you.

Personal tabs can be accessed anytime from any device, even offline.
Learn more »
Give kudos to tab author, rate the tab!
1 2 3 4 5
comments
print report bad tab
1 comment total.
0 reply
HiMyNameIsMatt 190 Jul 09, 2007 04:27 AM

nice work man =]

guest
You may want to rate the tab now too:
select rating
Wanna post a correction for this tab? Suggest correction