Oops, an error
Loading. Please wait.

Remnants And Pictures tab

1,092 views 9 this week
1 commentread comment
1 2 3 4 5
2 more votes to show rating
add to favorites
×
Save as Personal and add changes to this tab that will be seen only by you. Learn more ›
×
You can save this tab as Personal to edit and correct it or add notes. All changes will be seen only by you. Learn more »
launch autoscroll
font size
0
reset
how to read this tab
guitar tuner
edit
Autoscroll
slow
fast
+/-
esc
set tempo
stop
Author
-------------------------------------------------------------------------------
                                           REMNANTS AND PICTURES - Mimicking Birds
-------------------------------------------------------------------------------
Tabbed by: iluvvsmp2
E-mail: bregan1992@gmail.com

Tuning: CGDGCE

So as with the tab for On The Warm Side, this song is just chords, but because 
they come in many forms and they change often, it's easier to post this song as 
tablature.  This means that each chord will be tabbed in the right spot, but it's 
up to you to figure out the rhythm. Besides, the rhythm and what strings are 
sounded when varies slightly throughout the song, so you just got to get a feel 
for it.

INTRO:

e|---------------------------------|
B|------------------------0-0---0--|
G|-----9--7------------7--5-5-4-4--|
D|-----------------5---5--5-5-5-5--|
A|----12--5--------4---4--4-4-4-4--|
E|-0---0--0-------(0)--------------|
                                      x2
e|---------------------------------|
B|---------------------------------|
G|---------------------------------|
D|-9----10\--7-5----9-----5--------|
A|-5-----5---5-5-10-5-----5--------|
E|-5-----5---5-5--5-5-----5--------|


Repeat x2 more for VERSE A


VERSE B: (note: Nate may very well only play simple bar chords here - no melody. 
However, I'm still unable to tell, but I find it richer to play the melody within 
the chords, especially if it's just you and your guitar)

e|---------------------------------|
B|---------------------------------|
G|---------------------------------|
D|-7-----8\--5-3---7-----3---------|
A|-3-----3---3-3-8-3-----3---------|
E|-3-----3---3-3-3-3-----3---------|

e|---------------------------------|
B|---------------------------------|
G|---------------------------------|
D|-12----13\-10-8----12-----8------|
A|--8-----8---8-8-13--8-----8------|
E|--8-----8---8-8--8--8-----8------|


INTRO  x1

VERSE A  x2

VERSE B  x1


ENDING:

e|-----------------|
B|-----------------|
G|-----------------|   x4
D|----5---------3--|
A|-1--1--1------1--|
E|-1--1--1------1--|



************************************

| /   slide up
| \   slide down
| h   hammer-on
| p   pull-off
| ~   vibrato
| +   harmonic
| x   Mute note
| b   Bend
| pb  Pre-bend
| br  Bend release
| pbr Pre-bend release
| brb Bend release bend

************************************

            
            
Suggest correction
Creating personal tab
Creating personal tab
You can edit any tab online and save it as your Personal.

You can edit, replace or remove any tab part or add personal notes – all changes will be seen only by you.

Personal tabs can be accessed anytime from any device, even offline.
Learn more »
Give kudos to tab author, rate the tab!
1 2 3 4 5
comments
print report bad tab
1 comment total.
0 reply
dustintakk 259 Jun 11, 2016 05:55 PM

Tuning: CGDGCE

[INTRO & VERSE A] x2
e|---------------------------------|
B|------------------------0-0---0--|
G|-----9--7------------7--5-5-4-4--|
D|-----------------5---5--5-5-5-5--|
A|----12--5--------4---4--4-4-4-4--|
E|-0---0--0-------(0)--------------|

e|---------------------------------|
B|---------------------------------|
G|---------------------------------|
D|-9----10\--7-5----9-----5--------|
A|-5-----5---5-5-10-5-----5--------|
E|-5-----5---5-5--5-5-----5--------|

[VERSE A] x2

[VERSE B] x1
e|---------------------------------|
B|---------------------------------|
G|---------------------------------|
D|-7-----8\--5-3---7-----3---------|
A|-3-----3---3-3-8-3-----3---------|
E|-3-----3---3-3-3-3-----3---------|

e|---------------------------------|
B|---------------------------------|
G|---------------------------------|
D|-12----13\-10-8----12-----8------|
A|--8-----8---8-8-13--8-----8------|
E|--8-----8---8-8--8--8-----8------|

[INTRO] x1
[VERSE A] x2
[VERSE B] x1

[ENDING]
e|-----------------|
B|-----------------|
G|-----------------| x4
D|----5---------3--|
A|-1--1--1------1--|
E|-1--1--1------1--|

I saw a picture of you
Looking at a picture of me
Time fades slow so I think so ridiculously
I saw remnants of them
Underneath breathing us
Waving out post-consciously their thoughts are all dust

Left in the materials that their minds made and left behind
Buried by the weather for the future to dig up and find
Your mind
Your mind

I saw a picture of me
Looking through pictures of you
Before you were gone I knew exactly what to do
But they’re still asleep on my sleeve
Won’t wake up and leave
I guess I’ll take them with me to see everything I see

Twisted urges that I carry out and tuck-underneath
It’s all connected to something hiding beneath your feet
Beneath your feet
Beneath your feet

guest
You may want to rate the tab now too:
select rating
Wanna post a correction for this tab? Suggest correction