Oops, an error
Loading. Please wait.

It Gets Worse bass

2,046 views 27 this week
2 commentsread comments
1 2 3 4 5
x 5
add to favorites
×
Save as Personal and add changes to this tab that will be seen only by you. Learn more ›
×
You can save this tab as Personal to edit and correct it or add notes. All changes will be seen only by you. Learn more »
launch autoscroll
font size
0
reset
guitar tuner
edit
Autoscroll
slow
fast
+/-
esc
set tempo
stop
Author
Difficulty
It Gets Worse
Mindless Self Indulgence
How I Learned to Stop Giving a Shit and Love Mindless Self Indulgence


VERSE ONE (x4)
 G|--------------------------------------------------|
 D|----------4444-4--6666-6--------------------------|
 A|--6666-6------------------6666-6------------------|
 E|--------------------------------------------------|

CHORUS (x6) played really fast
 G|--------------------------------------------------|
 D|--------------------------------------------------|
 A|--666--444--222-----------------------------------|
 E|-------------------444--222222--------------------|

VERSE TWO (x2) 
 G|--------------------------------------------------|
 D|-----------44444444--66666666---------------------|
 A|--66666666---------------------66666666-----------|
 E|--------------------------------------------------|

 G|--------------------------------------------------|
 D|----------4444-4--6666-6--------------------------|
 A|--6666-6------------------6666-6------------------|
 E|--------------------------------------------------|

CHORUS (x6) played really fast
 G|--------------------------------------------------|
 D|--------------------------------------------------|
 A|--666--444--222-----------------------------------|
 E|-------------------444--222222--------------------|


BREAKDOWN
 G|--------------------------------------------------|
 D|--------------------------------------------------|
 A|-----6-6-6-456----6-6-6-456----6-6-6-456----|
 E|--------------------------------------------------|

 G|--------------------------------------------------|
 D|--------------------------------------------------|
 A|-----6-6-6---------------------------456----------|
 E|-----------765----7-7-7-567----7-7-7--------------|

 G|--------------------------------------------------|
 D|--------------------------------------------------| 
 A|---6-6-6-456------456------456------456------456--|
 E|--------------------------------------------------|

 G|--------------------------------------------------|
 D|--------------------------------------------------|
 A|------642------------456-----456-----456~---------|
 E|--------------567---------------------------------|

SOLO - BASS COME IN AT 2:12 (x3)
 G|--------------------------------------------------|
 D|--------------------------------------------------|
 A|--66666666 22222222 44444444 66666666-------------|
 E|--------------------------------------------------|

CHORUS (x6) played really fast
 G|--------------------------------------------------|
 D|--------------------------------------------------|
 A|--666--444--222-----------------------------------|
 E|-------------------444--222222--------------------|

END
 G|----------|
 D|----------|
 A|---6------|
 E|----------|

            
            
Suggest correction
Creating personal tab
Creating personal tab
You can edit any tab online and save it as your Personal.

You can edit, replace or remove any tab part or add personal notes – all changes will be seen only by you.

Personal tabs can be accessed anytime from any device, even offline.
Learn more »
comments
print report bad tab
2 comments total.
-1 reply
lollyrosas 10 Dec 02, 2014 03:29 PM, edited on July 3 2015, 12:06 am

<3

0 reply
waycest 303 Jan 16, 2015 08:03 PM, edited on January 17 2015, 01:03 am

ynz plays it like this except for the chorus

guest
You may want to rate the tab now too:
select rating
Wanna post a correction for this tab? Suggest correction