Oops, an error
Loading. Please wait.

Lovin You tab

949 views 36 this week
no commentswrite comment
1 2 3 4 5
3 more votes to show rating
add to favorites
×
Save as Personal and add changes to this tab that will be seen only by you. Learn more ›
×
You can save this tab as Personal to edit and correct it or add notes. All changes will be seen only by you. Learn more »
launch autoscroll
font size
0
reset
how to read this tab
guitar tuner
edit
Autoscroll
slow
fast
+/-
esc
set tempo
stop
This song has two instrumental parts - the guitar and some other electric piano of some kind.

Here's the guitar part! :)

It's mostly in chords (with a few differences), which I've done below.

Chords: E A D G B e
Dmaj7   x 5 7 6 7 5
C#m7    x 4 6 4 5 4
Bm7     x 2 4 2 3 2
Amaj7   x 0 2 1 2 0
A5      x 0 2 2 x x
D       x 5 7 7 7 5
E       x 7 9 9 9 7

[Intro]
  Dmaj7                C#m7                Bm7                Amaj7
e|-------------------|-------------------|-------------------|---------0---------|
B|------------7------|----5-------5------|----3-------3------|------2----------2-|
G|---------6---------|----4-------4------|----2----2---------|------1----------1-|
D|----7--------------|----6----6---------|-------------------|-------------------|
A|-5---------------5-|-4---------------0-|-2-----------------|-0h4----------0----|
E|-------------------|-------------------|-------------------|-------------------|

  Dmaj7                C#m7                Bm7             Amaj7
e|-------------------|-------------------|-------------------|-------------------|
B|----7-------7------|----5-------5------|----3-------3----2~|~2-----------------|
G|----6-------6------|----4-------4------|----2-------2----1~|~1-----------------|
D|----7----7---------|----6----6---------|----4----4-------2~|~2-----------------|
A|-5---------------5-|-4---------------0-|-2-----------------|----------0------0-|
E|-------------------|-------------------|-------------------|-------------------|

[Verse]
 Lovin'               you is              easy cause you're   beautiful
  Dmaj7                C#m7                Bm7                Amaj7
e|-------------------|-------------------|-------------------|-------------------|
B|----7-------7------|----5-------5------|----3--------------|-------------------|
G|----6-------6------|----4-------4------|----2-------2------|-------------------|
D|----7----7---------|----6----6-----6---|----4----4---------|--------2--------2-|
A|-5-----------------|-4---------------4-|-2-----------------|-0-------------0---|
E|-------------------|-------------------|-------------------|-------------------|

  Makin' love with     you is all I wanna do
  Dmaj7                C#m7                Bm7                Amaj7
e|-------------------|-------------------|-------------------|-------------------|
B|----7-------7------|----5-------5------|----3-------3------|-------------------|
G|----6-------6------|----4-------4------|----2-------2------|-------------------|
D|----7----7---------|----6----6---------|----4----4---------|-------------------|
A|-5-----------------|-4---------------4-|-2-----------------|-0------2--4-------|
E|-------------------|-------------------|-------------------|-------------------|

 Lovin'               you is              more than just a    dream come true
  Dmaj7                C#m7                Bm7                Amaj7
e|-------------------|-------------------|-------------------|-------------------|
B|----7-------7------|----5-------5------|----3-------3------|-------2----2------|
G|----6-------6------|----4-------4------|----2-------2------|----1-------1------|
D|----7----7---------|----6----6---------|----4----4---------|-------------------|
A|-5-----------------|-4---------------4-|-2-----------------|-0---------------0-|
E|-------------------|-------------------|-------------------|-------------------|

 And everything that I do     is             out of lovin'    you
  Dmaj7                C#m7                Bm7            Amaj7
e|-------------------|-------------------|-------------------|-------------------|
B|----7-------7------|----5-------5------|----3-------3----2~|~2-----------------|
G|----6-------6------|----4-------4------|----2-------2----1~|~1-----------------|
D|----7----7---------|----6----6---------|----4----4-------2~|~2-----------------|
A|-5-----------------|-4---------------4-|-2-----------------|----------0--------|
E|-------------------|-------------------|-------------------|-------------------|

  La la la la la         La la la la la       La la la la la la     La la la la la            
  Dmaj7                  C#m7                 Bm7                  Amaj7
e|---------------------|----------4----------|----------2------------|-------------------|
B|----------7-------7--|------------------5--|------------------3----|-------------------|
G|-------6----------6--|-------4----------4--|-------2---------------|-------------------|
D|----7----------7-----|----6----------6-----|----4----------4-------|-------------------|
A|-5-------------------|-4-------------------|-2-------------------0~|~0-----------------|
E|---------------------|---------------------|-----------------------|-------------------|

   Do do     do do     Do               Ah  - ah - ah - ah - ah - ah (whistle notes)
  Dmaj7                  C#m7               Bm7                   A5
e|-------------------|--------------------|---------------------|-------------------|
B|-------------------|----------5---------|----3----------------|-------------------|
G|-------6-----------|----------4---------|----2----------------|----------2--------|
D|----7--------------|-------6------------|----4----------------|-2-----------------|
A|-5---------------5-|-4----------------4-|-2-------------------|-0--------0--------|
E|-------------------|--------------------|---------------------|-------------------|

[Bridge]
 No one else  can    make me feel The      colours that you  bring
  Bm7                  C#m7                 Bm7                  Amaj7
e|-------------------|---------------------|-----------------------|-------------------|
B|-3-------3---------|-5-------5-----------|----------3------------|-------------------|
G|-2-------2---------|-4-------4-----------|-------2---------------|-------------------|
D|-4-------4-------6-|---------6-----------|----4--------2---------|-------------------|
A|------2------------|------4------------4-|-2-------------------0~|~0---------------0-|
E|-------------------|---------------------|-----------------------|-------------------|

 Stay with me while   we grow old     And  we will live each day in springtime
  Bm7                  C#m7                 Bm7      C#m7            D       E
e|-------------------|---------------------|-2--------4------------|-7-------5----------|
B|-3-------3---------|-5-------5-----------|-3--------5------------|-7-------9----------|
G|-2-------2---------|-4-------4-----------|-2--------4------------|-7-------9----------|
D|-4-------4-------6-|---------6-----------|-4--------6------------|-7-------9----------|
A|------2------------|------4------------4-|-2--------4------------|-5-------7----------|
E|-------------------|---------------------|-----------------------|------------------0-|

[Verse]
 Cause  lovin'         you     has        made my life so beautiful
  Dmaj7                C#m7                Bm7             Amaj7
e|-------------------|-------------------|-------------------|-------------------|
B|----7-------7------|----5-------5------|----3-------3------|------------2------|
G|----6-------6------|----4-------4------|----2-------2------|---------1---------|
D|----7----7---------|----6----6---------|----4----4---------|------2------------|
A|-5-----------------|-4---------------4-|-2---------------0~|~0---------------0-|
E|-------------------|-------------------|-------------------|-------------------|

  And every day of    my life     is      filled with lovin' you
  Dmaj7                C#m7                Bm7             Amaj7
e|-------------------|-------------------|-------------------|-------------------|
B|----7-------7------|----5-------5------|----3-------3----2~|~2-----------------|
G|----6-------6------|----4-------4------|----2-------2----1~|~1-----------------|
D|----7----7---------|----6----6---------|----4----4-------2~|~2-----------------|
A|-5-----------------|-4---------------4-|-2-----------------|------0------------|
E|-------------------|-------------------|-------------------|-------------------|

  Lovin'               you I              see your soul come  shinin' through
  Dmaj7                C#m7                Bm7                Amaj7
e|-------------------|-------------------|-------------------|-------------------|
B|----7-------7------|----5-------5------|----3-------3------|------------2------|
G|----6-------6------|----4-------4------|----2-------2------|------------1------|
D|----7----7---------|----6----6---------|----4----4---------|-------2-----------|
A|-5---------------5-|-4---------------4-|-2-----------------|-0--4------------0-|
E|-------------------|-------------------|-------------------|-------------------|

  And every time that we oooooh        I'm  more in love with you
  Dmaj7                C#m7                Bm7             Amaj7
e|-------------------|-------------------|-------------------|-------------------|
B|----7-------7------|----5-------5------|----3-------3------|----------2--------|
G|----6-------6------|----4-------4------|----2-------2------|-------1-----------|
D|----7----7---------|----6----6---------|----4----4---------|----2--------------|
A|-5-----------------|-4-----------------|-2-----------------|-0-----------------|
E|-------------------|-------------------|-------------------|-------------------|

  La la la la la         La la la la la       La la la la la la       La la la la la   
  Dmaj7                  C#m7                 Bm7                  Amaj7
e|---------------------|----------4----------|----------2------------|---------0---------|
B|----------7-------7--|------------------5--|------------------3----|-2-------2-------2-|
G|-------6----------6--|-------4----------4--|-------2----------2----|-1-------1-------1-|
D|----7----------7-----|----6----------6-----|----4----------4--4----|-2---------------2-|
A|-5-------------------|-4-------------------|-2---------------------|----0---------0----|
E|---------------------|---------------------|-----------------------|-------------------|

   Do do     do do     Do               Ah  - ah - ah - ah - ah - ah (whistle notes)
  Dmaj7                  C#m7               Bm7                  A5
e|-------------------|-------------------|---------------------|-------------------|
B|----------7--------|----5-------5------|----3----------------|-------------------|
G|-------6-----------|----4-------4------|----2----------------|----------2--------|
D|----7--------------|----6-------6------|----4----------------|-2-----------------|
A|-5---------------5-|-4-------4-------4-|-2-------------------|-0--------0--------|
E|-------------------|-------------------|---------------------|-------------------|

[Bridge]
 No one else  can    make me feel The      colours that you  bring
  Bm7                  C#m7                 Bm7                  Amaj7
e|-------------------|---------------------|-----------------------|-------------------|
B|-3-------3---------|-5-------5-----------|----------3------------|-------------------|
G|-2-------2---------|-4-------4-----------|-------2---------------|-------------------|
D|-4-------4-------6-|---------6-----------|----4--------2---------|-------------------|
A|------2------------|------4------------4-|-2-------------------0~|~0---------------0-|
E|-------------------|---------------------|-----------------------|-------------------|

 Stay with me while   we grow old     And  we will live each day in springtime
  Bm7                  C#m7                 Bm7      C#m7            D       E
e|-------------------|---------------------|-2--------4------------|-5-------7----------|
B|-3-------3---------|-5-------5-----------|-3--------5------------|-7-------9----------|
G|-2-------2---------|-4-------4-----------|-2--------4------------|-7-------9----------|
D|-4-------4-------6-|---------6-----------|-4--------6------------|-7-------9----------|
A|------2------------|------4------------4-|-2--------4------------|-5-------7----------|
E|-------------------|---------------------|-----------------------|------------------0-|

[Verse]
 Lovin'               you is              easy cause you're   beautiful
  Dmaj7                C#m7                Bm7                Amaj7
e|-------------------|-------------------|-------------------|-------------------|
B|----7-------7------|----5-------5------|----3--------------|-------------------|
G|----6-------6------|----4-------4------|----2-------2------|-------------------|
D|----7----7---------|----6----6-----6---|----4----4---------|--------2--------2-|
A|-5-----------------|-4---------------4-|-2-----------------|-0-------------0---|
E|-------------------|-------------------|-------------------|-------------------|

  And every day of    my life     is      filled with lovin' you
  Dmaj7                C#m7                Bm7             Amaj7
e|-------------------|-------------------|-------------------|-------------------|
B|----7-------7------|----5-------5------|----3-------3----2~|~2-----------------|
G|----6-------6------|----4-------4------|----2-------2----1~|~1-----------------|
D|----7----7---------|----6----6---------|----4----4-------2~|~2-----------------|
A|-5-----------------|-4---------------4-|-2-----------------|------0------------|
E|-------------------|-------------------|-------------------|-------------------|

  Lovin'               you I              see your soul come  shinin' through
  Dmaj7                C#m7                Bm7                Amaj7
e|-------------------|-------------------|-------------------|-------------------|
B|----7-------7------|----5-------5------|----3-------3------|------------2------|
G|----6-------6------|----4-------4------|----2-------2------|------------1------|
D|----7----7---------|----6----6---------|----4----4---------|-------2-----------|
A|-5---------------5-|-4---------------4-|-2-----------------|-0--4------------0-|
E|-------------------|-------------------|-------------------|-------------------|

  And every time that we oooooh        I'm  more in love with you
  Dmaj7                C#m7                Bm7             Amaj7
e|-------------------|-------------------|-------------------|-------------------|
B|----7-------7------|----5-------5------|----3-------3------|----------2--------|
G|----6-------6------|----4-------4------|----2-------2------|-------1-----------|
D|----7----7---------|----6----6---------|----4----4---------|----2--------------|
A|-5-----------------|-4-----------------|-2-----------------|-0-----------------|
E|-------------------|-------------------|-------------------|-------------------|

[Outro - repeat to fade]
  La la la la la         La la la la la       La la la la la la       La la la la la       
  Dmaj7                  C#m7                 Bm7                  Amaj7
e|---------------------|----------4----------|----------2------------|---------0---------|
B|----------7-------7--|------------------5--|------------------3----|-2-------2-------2-|
G|-------6----------6--|-------4----------4--|-------2----------2----|-1-------1-------1-|
D|----7----------7-----|----6----------6-----|----4----------4--4----|-2---------------2-|
A|-5-------------------|-4-------------------|-2---------------------|----0---------0----|
E|---------------------|---------------------|-----------------------|-------------------|

   Do do     do do     Do                 Ooh - ooh
  Dmaj7                  C#m7               Bm7                  A5
e|-------------------|-------------------|---------------------|-------------------|
B|----------7--------|----5-------5------|----3----------------|-------------------|
G|-------6-----------|----4-------4------|----2----------------|----------2--------|
D|----7--------------|----6-------6------|----4----------------|-2-----------------|
A|-5---------------5-|-4-------4-------4-|-2-------------------|-0--------0--------|
E|-------------------|-------------------|---------------------|-------------------|

******************************************************
~ indicates the chord is held on over into the next bar
******************************************************

            
            
Suggest correction
Creating personal tab
Creating personal tab
You can edit any tab online and save it as your Personal.

You can edit, replace or remove any tab part or add personal notes – all changes will be seen only by you.

Personal tabs can be accessed anytime from any device, even offline.
Learn more »
Give kudos to tab author, rate the tab!
1 2 3 4 5
comments
print report bad tab
guest
You may want to rate the tab now too:
select rating
Wanna post a correction for this tab? Suggest correction