Oops, an error
Loading. Please wait.
We have an official Guilty Of Being White tab made by UG professional guitarists. Check out the tab »
×
12,775 views 15 this week
2 commentsread comments
1 2 3 4 5
x 7
add to favorites
×
Save as Personal and add changes to this tab that will be seen only by you. Learn more ›
×
You can save this tab as Personal to edit and correct it or add notes. All changes will be seen only by you. Learn more »
launch autoscroll
font size
0
reset
how to read this tab
guitar tuner
edit
Autoscroll
slow
fast
+/-
esc
set tempo
stop
Author
Artist:  Minor Threat
Song:  Guilty of Being White
Album:  Complete Discography
Track:  13
Tabbed by:  Rick (RCGoalie1@aol.com)
AIM:  unhlax23


Chords:

G5   (355xxx)
D5   (x577xx)
Bb5  (688xxx)
F2   (x8-10-10xx)
C5   (x355xxx)
F5   (133xxx)


Verse:  played very fast

E|------------------------------|
B|------------------------------|
G|--------7-7-7-------10-10-10--|
D|--5-5-5-7-7-7-8-8-8-10-10-10--|
A|--5-5-5-5-5-5-8-8-8--8--8--8--|
E|--3-3-3-------6-6-6-----------|


Chorus:

E|-------------------------------------|
B|-------------------------------------|
G|-7-7-7-7-7-7--5-5--------------------|
D|-7-7-7-7-7-7--5-5--5-5-5-5-5-5-5-5---|
A|-5-5-5-5-5-5--3-3--5-5-5-5-5-5-5-5---|
E|-------------------3-3-3-3-3-3-3-3---|


Bridge:

E|---------------------------------------------|
B|---------------------------------------------|
G|----------------------------------------5----|
D|--8-8-8-8-8-8--3-3-3-3-3-3--5-5-5-5-5-5-5-5--|
A|--8-8-8-8-8-8--3-3-3-3-3-3--5-5-5-5-5-5-3-5--|
E|--6-6-6-6-6-6--1-1-1-1-1-1--3-3-3-3-3-3---3--|


That's it.  Listen to the song, figure out what goes where, and have fun.
Rate this please, and email me with questions and stuff.  Later.

            
            
Suggest correction
Creating personal tab
Creating personal tab
You can edit any tab online and save it as your Personal.

You can edit, replace or remove any tab part or add personal notes – all changes will be seen only by you.

Personal tabs can be accessed anytime from any device, even offline.
Learn more »
comments
print report bad tab
2 comments total.
+2 reply
subligar 31 Jun 04, 2013 09:27 PM

Chorus:

E|------------------------------------------|
B|------------------------------------------|
G|-7-7-7-7-7-7--5---------------------------|
D|-7-7-7-7-7-7--5--3--4--5--5-5-5-5-5-5-5---|
A|-5-5-5-5-5-5--3--3--4--5--5-5-5-5-5-5-5---|
E|-----------------1--2--3--3-3-3-3-3-3-3---|

I think this may be what it is, you can hear the steps in there.

0 reply
SuicidicAcid 11 Jul 28, 2016 10:19 AM

Chorus is wrong, rhythm is wrong. Some of the chords were right but it definitely needs some serious work
Woudln't recomend it to anyone just starting who couldnt listen to the song and actually pick up waht is being played

guest
You may want to rate the tab now too:
select rating
Wanna post a correction for this tab? Suggest correction