Oops, an error
Loading. Please wait.
We have an official Seeing Red tab made by UG professional guitarists. Check out the tab »
×
11,339 views 12 this week
no commentswrite comment
1 2 3 4 5
x 5
add to favorites
×
Save as Personal and add changes to this tab that will be seen only by you. Learn more ›
×
You can save this tab as Personal to edit and correct it or add notes. All changes will be seen only by you. Learn more »
launch autoscroll
font size
0
reset
how to read this tab
guitar tuner
edit
Autoscroll
slow
fast
+/-
esc
set tempo
stop
Author
----------------------------------------------------------------------------
--------------------------------Seeing_Red----------------------------------
----------------------------------------------------------------------------

A tribute to the punk movement...

Tuning: standard

[Intro]

 |======2x=======|=======2x=======|=======2x=======|
e|---------------|----------------|----------------|
b|---------------|----------------|----------------|
g|---only-bass---|------------9-7-|------------9-7-|
d|---------------|7--------5--9-7-|7--7-7-7-5--9-7-|
a|---------------|7--------5--7-5-|7--7-7-7-5--7-5-|
E|---------------|5--------3------|5--5-5-5-3------|

[Pre-Verse 1]

 |============2x============|
e|--------------------------|
b|--------------------------|
g|5-----------------7-7-7-7-|
d|5-5-7-2-2-3-3-3-3-7-7-7-7-|
a|3-5-7-2-2-3-3-3-3-5-5-5-5-|
E|--3-5-0-0-1-1-1-1---------|

[Verse 1]

 |============4x============|
e|--------------------------|You see me and you laugh out loud. 
b|--------------------------|You taunt me from safe inside your crowd.
g|5-----------------7-7-7-7-|My looks they must threaten you 
d|5-5-7-2-2-3-3-3-3-7-7-7-7-|to make you act the way you do.
a|3-5-7-2-2-3-3-3-3-5-5-5-5-|
E|--3-5-0-0-1-1-1-1---------|

[chorus 1]

 |========4x======|
e|----------------|
b|----------------| [Red!, I'm seeing red!] 
g|------------9-7-|
d|7--------5--9-7-|
a|7--------5--7-5-|
E|5--------3------|


[Pre-Verse 2]

 |============2x============|
e|--------------------------|
b|--------------------------|
g|5-----------------7-7-7-7-|
d|5-5-7-2-2-3-3-3-3-7-7-7-7-|
a|3-5-7-2-2-3-3-3-3-5-5-5-5-|
E|--3-5-0-0-1-1-1-1---------|

[Verse 2]

 |============4x============|
e|--------------------------|
b|--------------------------|You see me and you think I'm a jerk. 
g|5-----------------7-7-7-7-|First impressions without a word.
d|5-5-7-2-2-3-3-3-3-7-7-7-7-|You can't believe your eyes at first.
a|3-5-7-2-2-3-3-3-3-5-5-5-5-|But now you know you've seen the worst.
E|--3-5-0-0-1-1-1-1---------|

[chorus 2]

 |========4x======|
e|----------------|
b|----------------|[Red!, I'm seeing red!]
g|------------9-7-|
d|7--------5--9-7-|
a|7--------5--7-5-|
E|5--------3------|

[Outro]

 |=======2x======|=======3x=======|
e|---------------|----------------|--|
b|---------------|----------------|--|
g|---only-bass---|------------9-7-|--|
d|---------------|7--7-7-7-5--9-7-|7-|
a|---------------|7--7-7-7-5--7-5-|7-|
E|---------------|5--5-5-5-3------|5-|

            
            
Suggest correction
Creating personal tab
Creating personal tab
You can edit any tab online and save it as your Personal.

You can edit, replace or remove any tab part or add personal notes – all changes will be seen only by you.

Personal tabs can be accessed anytime from any device, even offline.
Learn more »
comments
print report bad tab
guest
You may want to rate the tab now too:
select rating
Wanna post a correction for this tab? Suggest correction