Oops, an error
Loading. Please wait.

Absinthe Party At The Fly Honey Warehouse bass

version 1
version 1

Whole song

Interactive

271 views 3 this week
no commentswrite comment
1 2 3 4 5
2 more votes to show rating
add to favorites
×
Save as Personal and add changes to this tab that will be seen only by you. Learn more ›
×
You can save this tab as Personal to edit and correct it or add notes. All changes will be seen only by you. Learn more »
launch autoscroll
font size
0
reset
guitar tuner
backing track
0:00
0:00
edit
Autoscroll
slow
fast
+/-
esc
set tempo
stop
Author
-------------------------------------------------------------------------------
        Minus The Bear - Absinthe Party At The Fly Honey Warehouse
-------------------------------------------------------------------------------
Tabbed by: DR

Tuning: Drop D 
 
I used a combination of the album recording and the "Live At Metro Theatre" video
to tab this out. I tried to stay true to the the album recording when there were 
differences between the versions. 

Intro
G|------------------------------------------------|
D|-5--0h5--0h5--0h5--0h9-0h10--0h2--0h2--0h2--0h2-|
A|------------------------------------------------|x4
D|------------------------------------------------|

G|----7-----7-----7--4h5p4----11------9--------------------------------------|
D|-0h5---0h5---0h5--5-----5/9----9-10---9p0h2--2h4-0h2--2h4-0h2--2h4-0h2--2h4|
A|---------------------------------------------------------------------------|
D|---------------------------------------------------------------------------|

G|----7-----7-----7--4h5p4----11------9--------------------------------------|
D|-0h5---0h5---0h5--5-----5/9----9-10---9p0h2--2h4-0h2--2h4-0h2--2h4-0h2-----|
A|---------------------------------------------------------------------------|
D|---------------------------------------------------------------------------|

Verse 1
G|-------------------------------------------------------------------------|
D|-------------------------------------------------------------------------|
A|-------------------------------------------------------------------------|x4
D|-5-5-5-2/5-5-5-2/5-5-5-2/5-5-5-9-9-9-10-10-10-0h2-2--0h2-2--0h2-2--0h2-2-|

Chorus 1
G|---------------------------------------|
D|---------------------------------------|
A|---------------------------------------|x2
D|-10-10--10-10-7-7--7-7-5-5--5/2-2--5-5-|

G|----------------------------------------------------------------------------------|
D|------------------------------------------------5---------------------------------|
A|-------10-10h12-12p10-----7-7-7----------5-5-------------5-------10-10h12-12p10---|
D|-10-10----------------7-7-------7-7-5-5------5/2-2---5-5---10-10------------------|

G|--------------------------------------|----------------------|--------------|
D|------------------------------5-------|----------------------|--------------|
A|-----7-7-7----------5-5-------------5-|----------------------|x2------------|
D|-7-7-------7-7-5-5------5/2-2---5-5---|10-10-10-10-2/14-2/14-|---10--7------|

Verse 2
G|-------------------------------------------------------------------------|
D|-------------------------------------------------------------------------|
A|-------------------------------------------------------------------------|x4
D|-5-5-5-2/5-5-5-2/5-5-5-2/5-5-5-9-9-9-10-10-10-0h2-2--0h2-2--0h2-2--0h2-2-|

G|---------------------------------------------|
D|---------------------------------------------|
A|---------------------------------------------|x2
D|-5-5-5-2/5-5-5-2/5-5-5-2/5-5-5-0h2-2--0h2-2--|

G|-------------------------------------------------------------------------|
D|-------------------------------------------------------------------------|
A|-------------------------------------------------------------------------|x2
D|-5-5-5-2/5-5-5-2/5-5-5-2/5-5-5-9-9-9-10-10-10-0h2-2--0h2-2--0h2-2--0h2-2-|

Bridge
G|-------------------------------------------------------------------------|
D|-------------------------------------------------------------------------|
A|-------------------------------------------------------------------------|
D|-5-5-5-2/5-5-5-2/5-5-5-2/5-5-5-9--10--0h2-2--0h2-2--0h2-2--0h2-2--5-5-5--|

G|-------------------------------------------------|
D|-------------------------------------------------|
A|-------------------------------------------------|
D|-2/5-5-5-2/5-5-5-2/5-5-5-9--10--14--12--10-12p10-|

Chorus 2 / Outro
G|----------------------------------------------------------------------------------|
D|------------------------------------------------5---------------------------------|
A|-------10-10h12-12p10-----7-7-7----------5-5-------------5-------10-10h12-12p10---|
D|-10-10----------------7-7-------7-7-5-5------5/2-2---5-5---10-10------------------|

G|--------------------------------------|---------------------|-|----------------|
D|------------------------------5-------|---------------------|-|----------------|
A|-----7-7-7----------5-5-------------5-|---------------------|-|------10--10h12-|
D|-7-7-------7-7-5-5------5/2-2---5-5---|10-10-10-10--10(x16)-|-|10-10-----------|

G|--------------------------------------------|--------------------------------|
D|-----------------------------------5--------|--------------------------------|
A|-12p10-----7-7-7----------5-5-------------5-|x4------------------------------|
D|-------7-7-------7-7-5-5------5/2-2---5-5---|---10-10-10-10--2/14-2/14--10-10|

G|--------------------------------------------------------------------------|
D|---------------------------------------------------------------2-2-2------|
A|--------------------------------------------------------------------------|
D|-10-10-14-14--14-14-14--14-14-14--14-14-14--14-10-10-10-10-2-2------2-2-2-|

G|-------------------------------------------------------|
D|-2-2-2-----------------------14-------14-------14------|
A|-------------------------------------------------------|
D|-------0h10-10-10-10--14-14-----14-14----14-14----14\--|

| /  slide up
| \  slide down
| h  hammer-on
| p  pull-off
| ~  vibrato
| +  harmonic
| x  Mute note
===============================================================================

Hey, let's cross the sea
And get some culture.
Red wine with every meal
And absinthe after dinner.
We'd look good side by side
Walking back to the hotel

We've got to get something
To eat and to drink yeah,
And find a place to stay
That's not far off the main way-
We've got to plan our day:
Rodin at the Orsay
And find a way to cram it all in
Before we drink hard again

Let's get a bottle and drink alone tonight
Let's get a bottle and drink alone tonight

'This light looks good on you, '
Morning came early.
Sitting on a park bench
That's older than my country
Two star hotel
Near St. Germain.
Two star hotel
Where the stars don't mean anything.

            
            
Suggest correction
Creating personal tab
Creating personal tab
You can edit any tab online and save it as your Personal.

You can edit, replace or remove any tab part or add personal notes – all changes will be seen only by you.

Personal tabs can be accessed anytime from any device, even offline.
Learn more »
Give kudos to tab author, rate the tab!
1 2 3 4 5
comments
print report bad tab
guest
You may want to rate the tab now too:
select rating
Wanna post a correction for this tab? Suggest correction