Oops, an error
Loading. Please wait.

Ice Monster tab

version 2
version 2

Whole song

Interactive

25,061 views 12 this week
1 commentread comment
1 2 3 4 5
x 13
add to favorites
×
Save as Personal and add changes to this tab that will be seen only by you. Learn more ›
×
You can save this tab as Personal to edit and correct it or add notes. All changes will be seen only by you. Learn more »
launch autoscroll
font size
0
reset
how to read this tab
guitar tuner
edit
Autoscroll
slow
fast
+/-
esc
set tempo
stop
Author
Difficulty
Unregistered
Ice Monster - Minus the bear.

Standard tuning.

Im pretty sure I got everything, My first tab. A great, creative song by
Minus the bear from the album Planet of Ice.


[Intro]

e|----------------------------------------14------------------------|
B|--------10-----------10---------------14--14----10-12-12/14-12----|
G|-----11----11-----11----11---------11---------11------------------| 
D|----9--------9---9--------9--11-12-----------9--------------------|
A|--10-----------10-------------------------------------------------|
E|------------------------------------------------------------------|(x2)

Guitar 2

e|------------------------------------------------|
B|---------------------------7--------------------|
G|-----2--------2-----------6-6----2-4-4/6-4------|
D|---4---4----4---4-------4-------4---------------| 
A|--2-----2--2-----2--4-5--------2----------------|
E|-3--------3-------------------------------------|(x2)

Guitar 1


e|-----------------------------------------------|
B|-----------------------------------------------|
G|----10-10-----10-10------------14------10-12---|
D|----11-11-----11-11---------11---------11-11---|
A|-9---------9----------11-12---------9----------|
E|-----------------------------------------------|(x6)


[Verse 1]

"You've Come to this, you were once a lion." Guitar 2

e|-----------------------------------------------|
B|---------------------------7-------------------|
G|-----2--------2-----------6-6----2-4-4/6-4-----|
D|---4---4----4---4-------4-------4--------------|
A|--2-----2--2-----2--4-5--------2---------------|
E|-3--------3------------------------------------|(x6)


[Verse 1]

"You've Come to this, you were once a lion." Guitar 1

e|----------------------|
B|----------------------|
G|--4-2-----------------|
D|------4---------------|
A|--------2-------------|
E|----------0-----------|
Interlude, bridge thing.

e|-2-2----2-2----------------|
B|-3-3----1-1----0-0---0-0---|
G|-4-4----2-2----0-0---0-0---|
D|-4-4----0-0----0-0---2-2---|
A|-2-2-----------2-2---2-2---|
E|---------------3-3---0-0---|(x3)


[Chorus] 

For both guitars

e|-2-2--2-2--2-2-----------------|
B|-3-3--3-3--3-3-----------------|
G|-4-4--4-4--4-4---4-2-----------|
D|-4-4--4-4--4-4-------4---------|
A|-2-2--2-2--2-2---------2-------|
E|-------------------------0-----|

(сhorus ending)

e|--------------------------------------------------------------|
B|--------------------------------------------------------------|
G|-9/11~------------------7-------------------------------------|
D|---------7~-7~------7/9---9-----------------------------------|
A|--------------------------------------------------------------|
E|--------------------------------------------------------------|


[Bridge]

Guitar 1

e|--------------------------------------------------------------------------|
B|--12-12-12-----12-12-12----12/14/12--10-----------------------------------|
G|--------------------------------------------------------------------------|
D|--------------------------------------------------------------------------|
A|--------------------------------------------------------------------------|
E|--------------------------------------------------------------------------|


[Bridge]

Guitar 2

e|----------------------------------------14------------------------|
B|--------10-----------10---------------14--14----10-12-14-12-------|
G|-----11----11-----11----11---------11---------11------------------|
D|----9--------9---9--------9--11-12-----------9--------------------|
A|--10-----------10-------------------------------------------------|
E|------------------------------------------------------------------|

e|----------------------------------------14------------------------|
B|--------10-----------10---------------14--14----10-12-14-12//-----|
G|-----11----11-----11----11---------11---------11------------------|
D|----9--------9---9--------9--11-12-----------9--------------------|
A|--10-----------10-------------------------------------------------|
E|------------------------------------------------------------------|

---------------------------7--------------------|
-----2--------2-----------6-6----2-4-4/6-4------|
---4---4----4---4-------4-------4---------------|
--2-----2--2-----2--4-5--------2----------------|
-3--------3-------------------------------------|(x2)


[Verse 2] 

(guitar 1)

e|--------------------------------------------------------------------------|
B|--------------------------------------------------------------------------|
G|-----------------12/14---14/16-------7p6----------------------------------|
D|------12-9h12/14------16------16---------7h9------------------------------|
A|--10----------------------------------------------------------------------|
E|--------------------------------------------------------------------------|

e|--------------------------------------------------------------------------|
B|-------------------------------------12/15--------------------------------|
G|-----------------12/14---14/16-------------14/16--------------------------|
D|------12-9h12/14------16------16------------------------------------------|
A|--10----------------------------------------------------------------------|
E|--------------------------------------------------------------------------|


e|--------------------------------------------------------------------------|
B|--------------------------------------------------------------------------|
G|-----------------12/14---14/16-------7p6-------7p6------------------------|
D|------12-9h12/14------16------16---------7h9-------9----------------------|
A|--10----------------------------------------------------------------------|
E|--------------------------------------------------------------------------|

e|--------------------------------------------------------------------------|
B|-------------------------------------12/15--------------------------------|
G|-----------------12/14---14/16-------------14/16--------------------------|
D|------12-9h12/14------16------16------------------------------------------|
A|--10----------------------------------------------------------------------|
E|--------------------------------------------------------------------------|


[Verse 2]

Guitar 2

e|----------------------|
B|----------------------|
G|--4-2-----------------|
D|------4---------------|
A|--------2-------------|
E|----------0-----------|
Interlude, bridge thing again.


e|-2-2----2-2----------------|
B|-3-3----1-1----0-0---0-0---|
G|-4-4----2-2----0-0---0-0---|
D|-4-4----0-0----0-0---2-2---| 
A|-2-2-----------2-2---2-2---|
E|---------------3-3---0-0---|(x4)


[Chorus]

number 2 For both guitars

e|-2-2----2-2----------------|
B|-3-3----1-1----0-0---0-0---|
G|-4-4----2-2----0-0---0-0---|
D|-4-4----0-0----0-0---2-2---| 
A|-2-2-----------2-2---2-2---|
E|---------------3-3---0-0---|(x3)


[Chorus]

Number 3 For both guitars

e|--------------2-2-|
B|--0-0---0-0---3-3-|
G|--0-0---0-0---4-4-|
D|--0-0---2-2---4-4-|
A|--2-2---2-2---2-2-|
E|--3-3---0-0-------|

"Just leave her out, of this."

e|------------------------------------|
B|-/12-12~--/14 14~--/15-15~-/12-12~--|
G|------------------------------------|
D|------------------------------------|
A|------------------------------------|
E|------------------------------------|

************************************

| h  Hammer-on
| p  Pull-off
| /  Slide up
| ~  Vibrato
|    

************************************

            
            
Suggest correction
Creating personal tab
Creating personal tab
You can edit any tab online and save it as your Personal.

You can edit, replace or remove any tab part or add personal notes – all changes will be seen only by you.

Personal tabs can be accessed anytime from any device, even offline.
Learn more »
comments
print report bad tab
1 comment total.
0 reply
jazz5753 41 May 18, 2010 08:13 AM

DAVID SUCKS AT TABS

guest
Wanna post a correction for this tab? Suggest correction