Oops, an error
Loading. Please wait.

Viet Nam bass

version 1
version 1

Whole song

Interactive

7,955 views 15 this week
no commentswrite comment
1 2 3 4 5
x 10
add to favorites
×
Save as Personal and add changes to this tab that will be seen only by you. Learn more ›
×
You can save this tab as Personal to edit and correct it or add notes. All changes will be seen only by you. Learn more »
launch autoscroll
font size
0
reset
guitar tuner
backing track
0:00
0:00
edit
Autoscroll
slow
fast
+/-
esc
set tempo
stop
"Viet Nam" by The Minutemen
Tabbed by Badfrancis@aol.com

Intro:
G| -12--13--14----14--13--12--|
D| ---------------------------|
A| ---------------------------|
E| ---------------------------|
     Play this 2 Times then play...

G| ----------------------|
D| -12\slide down neck---|
A| ----------------------|
E| ----------------------|

Verse:    Play Four Times
G| ----7-----------------------|
D| ----------------------5h7---|
A| -5-----3--3-----------------|
E| -------------3--4--5--------|

G| ----7-------------------------|
D| ------------------------------|
A| -5-----3--3-----------0-2-3---|
E| -------------5--4--3----------|

Chorus:
G| -------------------------|
D| ---------9--7---5--6--7--|
A| -7---9-------------------|
E| -------------------------|
     Play this four times then play...

G| ----------------------------------------------|
D| ----------------------------------------------|
A| ------------------------5--5--5--7----7s17s5--|
E| -5--5--5--7---7s17s5--------------------------|

Play Verse

Play Chorus

Outro:     Play Twice
G| -12--13--14----14--13--12---|
D| ----------------------------|
A| ----------------------------|
E| ----------------------------|


==================================================================

============

            
            
Suggest correction
Creating personal tab
Creating personal tab
You can edit any tab online and save it as your Personal.

You can edit, replace or remove any tab part or add personal notes – all changes will be seen only by you.

Personal tabs can be accessed anytime from any device, even offline.
Learn more »
comments
print report bad tab
guest
Wanna post a correction for this tab? Suggest correction