Oops, an error
Loading. Please wait.

Butterflies tab

version 2
version 2

Whole song

82 views 1 this week
no commentswrite comment
1 2 3 4 5
2 more votes to show rating
add to favorites
×
Save as Personal and add changes to this tab that will be seen only by you. Learn more ›
×
You can save this tab as Personal to edit and correct it or add notes. All changes will be seen only by you. Learn more »
launch autoscroll
font size
0
reset
how to read this tab
guitar tuner
edit
Autoscroll
slow
fast
+/-
esc
set tempo
stop
Author
Difficulty
------------------------------------------------------------------------------- 

                         Butterflies - Miracle Legion

-------------------------------------------------------------------------------
Album: The Backyard
Tabbed by: Estuary
Email: lreaper3@yahoo.com

Tuning: Standard

Intro:
e|-----0-0-------------0-0---------|
B|-----5-5-----0-------5-5------0--|
G|--6-------6-------6--------6-----|
D|--7-------7-------7--------7-----|
A|--7-------7-------7--------7-----|
E|---------------------------------|

Main Riff:
e|-----0-0-------------0-0-----------------------------------|
B|-----5-5-----0-------5-5------0----------------------------|
G|--6-------6-------6--------6---------6--4--3-3---1-1--3-3--|
D|--7-------7-------7--------7---------7--5--4-4---2-2--4-4--|
A|--7-------7-------7--------7---------7--5--4-4---2-2--4-4--|
E|-----------------------------------------------------------|

Chorus:
e|--0-0--0-0--0-0--0-0--|
B|--0-0--0-0--0-0--0-0--|
G|--8-8--8-8--6-6--6-6--| x4
D|--9-9--9-9--7-7--7-7--|
A|--9-9--9-9--7-7--7-7--|
E|--0-0--0-0--0-0--0-0--|

Bridge:
e|--0---0--0--|
B|--0---0--0--|
G|--4---6--4--| x2
D|--5---7--5--|
A|--5---7--5--|
E|--0---0--0--|


(Upstream seems so far away)

On a river that's flowing northerly
Upstream seems so far away to me right now
But if you're going to the woods
If you're going to the woods
I swear I'll leave you dry

Will you wear my coat?
Will you wear my coat of butterflies?
Will you wear my coat?
Will you wear my coat of butterflies?

That float so softly by
I'm calmer now than I've ever been before1
One night of peaceful sleep
That's all I ask
And it doesn't feel like a disguise

When you wear my coat

Will you wear my coat?
Will you wear my coat of butterflies?
Will you wear my coat?
Will you wear my coat of butterflies?

On a river that's flowing northerly
Upstream seems so far away to me right now
But if you're going to the woods
If you're going to the woods
My god, I swear I'll keep you dry

Will you wear my coat?
Will you wear my coat of butterflies?
Will you wear my coat?
Will you wear my coat of butterflies?

            
            
Suggest correction
Creating personal tab
Creating personal tab
You can edit any tab online and save it as your Personal.

You can edit, replace or remove any tab part or add personal notes – all changes will be seen only by you.

Personal tabs can be accessed anytime from any device, even offline.
Learn more »
Give kudos to tab author, rate the tab!
1 2 3 4 5
comments
print report bad tab
guest
You may want to rate the tab now too:
select rating
Wanna post a correction for this tab? Suggest correction