Oops, an error
Loading. Please wait.

Mr Mingo tab

version 1
version 1

Whole song

  • This version is fullly tabbed including the bridge... Show more
169 views 1 this week
4 commentsread comments
1 2 3 4 5
2 more votes to show rating
add to favorites
×
Save as Personal and add changes to this tab that will be seen only by you. Learn more ›
×
You can save this tab as Personal to edit and correct it or add notes. All changes will be seen only by you. Learn more »
launch autoscroll
font size
0
reset
how to read this tab
guitar tuner
edit
Autoscroll
slow
fast
+/-
esc
set tempo
stop
Author
About this tab version
This version is fullly tabbed including the bridge and riffs, chord progression is accurate and checked against video of recent performances. Was this info helpful? Yes No
[Intro]

e|---------------------0-0--|
B|---------------1-1---1-1--|
G|------------0--2-2---0-0--|
D|----2-2-0-2----2-2---2-2--|
A|--3------------0-0---3-3--|
E|--------------------------|
    C            Am    C


[Verse 1]

e|---------------------0-0-------------0--------0-0--|
B|---------------1-1---1-1-------------1--1-1---1-1--|
G|------------0--2-2---0-0-------------0--2-2---0-0--|
D|----2-2-0-2----2-2---2-2-----2-------2--2-2---2-2--|
A|--3------------0-0---3-3-----3-------3--0-0---3-3--|
E|---------------------------------------------------|
    C            Am    C                  Am    C
   
Centuries have passed
And though I want it to I know that it won't last
Well you were good to me before
But the good got up and went when you went out the door


[Chorus]

e|--0-0-----0-----0----0-0---3-3--|
B|--1---1-----1--------1-1---0-0--|
G|--2-----2-----2------0-0---0-0--|
D|--2------------------2-2---0-0--|
A|--0------------------3-3---2-2--|
E|---------------------------3-3--|
    Am                 C     G

So I said goodbye
Even though I know I'll die
I said goodbye to Mr. Mingo


[Verse 2] 
(same as verse 1)

It's not important to me now
At least that's what I tell myself when I am feeling down
I'm not in love enough to stay
But I'm in love enough to know that I should go away


[Chorus 2] 
(same as chorus 1)

So I said goodbye
Even though I know I'll die
I said goodbye to Mr. Mingo


[Bridge]

During the bridge Mr. Ray plays a sequence of C-Cmaj7-C-DSus4-GSus4/D. Listen to the recording to get the 
rhythm right. The chords are:

C       X32010
CMaj7   X32000
Dsus4   XX0233
Gsus4/D XX0013

I hollered
I said goodbye to Mr. M-I-N-G-O


[Solo]

After the solo, play one more chorus, then repeat the bridge progression over and over, ending on a Dsus4-
Gsus4/D, Dsus4 - Gsus4/D - C. If you're playing with a mate, the lead is repeating this phrase over those 
chords:

e|---------------|
B|---------------|
G|---------------|
D|---2-5--5-7-5--|
A|-3-------------|
E|---------------|

            
            
Suggest correction
Creating personal tab
Creating personal tab
You can edit any tab online and save it as your Personal.

You can edit, replace or remove any tab part or add personal notes – all changes will be seen only by you.

Personal tabs can be accessed anytime from any device, even offline.
Learn more »
Give kudos to tab author, rate the tab!
1 2 3 4 5
comments
print report bad tab
4 comments total. Showing first comments.
0 reply
estuary 641 Aug 15, 2016 06:59 PM

Nice job! Thanks for clearing up the intro, that sounds much more accurate. If you have any more ML tabs or are interested in making more, please do - would love to have more of their discography tabbed out.

0 reply
estuary 641 Aug 18, 2016 05:27 AM, edited at 02:50 pm

I believe the Fmaj7 in the intro/verse should be a Am, check out the live video of Mr Mingo by WFUV.

0 reply
estuary 641 Aug 18, 2016 02:51 PM

And the D7sus4 should just be xx0013

guest
You may want to rate the tab now too:
select rating
Wanna post a correction for this tab? Suggest correction