Oops, an error
Loading. Please wait.

The Heart Is Attached tab

94 views 1 this week
2 commentsread comments
1 2 3 4 5
2 more votes to show rating
add to favorites
×
Save as Personal and add changes to this tab that will be seen only by you. Learn more ›
×
You can save this tab as Personal to edit and correct it or add notes. All changes will be seen only by you. Learn more »
launch autoscroll
font size
0
reset
how to read this tab
guitar tuner
edit
Autoscroll
slow
fast
+/-
esc
set tempo
stop
Author
------------------------------------------------------------------------------- 

                      The Heart is Attached - Miracle Legion

-------------------------------------------------------------------------------
Album: The Backyard
Tabbed by: Estuary
Email: lreaper3@yahoo.com

Tuning: Standard

[Intro]

    D5/A          Cadd9         G/B           Asus4
e|-----------------------------------------------------------|
B|--3--3-3--3-3-3-3--3-3--3-3-3-3--3-3--3-3-3-3--3-3--3-3-3--|
G|--2--2-2--2-2-2-0--0-0--0-0-0-0--0-0--0-0-0-2--2-2--2-2-2--| x2
D|--0--0-0--0-0-0-2--2-2--2-2-2-0--0-0--0-0-0-2--2-2--2-2-2--|
A|--0--0-0--0-0-0-3--3-3--3-3-3-2--2-2--2-2-2-0--0-0--0-0-0--|
E|-----------------------------------------------------------|


[Verse]

    D5/A         Cadd9         G/B           Asus4
e|----------------------------------------------------------|
B|-------3----3-------3-----3-------3-----3--3--3-3--3-3-3--|
G|-----2---2--------0---0---------0---0------2--2-2--2-2-2--|
D|--0--------0-------------------------------2--2-2--2-2-2--| x4
A|---------------3--------3----2--------2----0--0-0--0-0-0--|
E|----------------------------------------------------------|

Call in the chanting
sending signals
red in color
red for you
and red for me too

[Chorus]

C   Am
The heart is attached
C   Am
The heart is attached

[Verse]

    D5/A         Cadd9         G/B           Asus4
e|----------------------------------------------------------|
B|-------3----3-------3-----3-------3-----3--3--3-3--3-3-3--|
G|-----2---2--------0---0---------0---0------2--2-2--2-2-2--|
D|--0--------0-------------------------------2--2-2--2-2-2--| x4
A|---------------3--------3----2--------2----0--0-0--0-0-0--|
E|----------------------------------------------------------|

A thousand flowers waiting for your feet
happy tears wash the pavement
happy tears, happy tears
happy tears for the homecoming

[Chorus]

C   Am
The heart is attached
C   Am
The heart is attached

[Bridge]

    D  Dsus4
e|--2----3--|
B|--3----3--|
G|--2----0--| x4
D|--0----0--|
A|----------|
E|----------|

[Solo]

    D5/A          Cadd9         G/B           Asus4
e|-----------------------------------------------------------|
B|--3--3-3--3-3-3-3--3-3--3-3-3-3--3-3--3-3-3-3--3-3--3-3-3--|
G|--2--2-2--2-2-2-0--0-0--0-0-0-0--0-0--0-0-0-2--2-2--2-2-2--| x6
D|--0--0-0--0-0-0-2--2-2--2-2-2-0--0-0--0-0-0-2--2-2--2-2-2--|
A|--0--0-0--0-0-0-3--3-3--3-3-3-2--2-2--2-2-2-0--0-0--0-0-0--|
E|-----------------------------------------------------------|

Backing guitar starting after second set of chords:

e|---------|---------------|---------|---------------|
B|--3------|--3-3---3------|--3------|--3-3---3------|
G|----2----|------2---2----|----2----|------2---2----|
D|------0--|------------0--|------0--|------------0--|
A|---------|---------------|---------|---------------|
E|---------|---------------|---------|---------------|
      x5                        x6            x9

[Chorus]

C Am C Am 

Distorted guitar layered over above C chords:

e|-----------------|
B|-----------------|
G|-----------------| x2
D|-----------------|
A|--3-5-3-2--------|
E|----------5-3-5--|

[Verse]

    D5/A         Cadd9         G/B           Asus4
e|----------------------------------------------------------|
B|-------3----3-------3-----3-------3-----3--3--3-3--3-3-3--|
G|-----2---2--------0---0---------0---0------2--2-2--2-2-2--| x4
D|--0--------0-------------------------------2--2-2--2-2-2--|
A|---------------3--------3----2--------2----0--0-0--0-0-0--|
E|----------------------------------------------------------|

In the background:

e|----------------|
B|--3------3------|
G|----2------2----| x15
D|------0------0--|
A|----------------|
E|----------------|

[Chorus]

C   Am
The heart is attached
C   Am
The heart is attached

[Outro]

    D  Dsus4
e|--2----3--|
B|--3----3--|
G|--2----0--| x8
D|--0----0--|
A|----------|
E|----------|

Repeat until fade

            
            
Suggest correction
Creating personal tab
Creating personal tab
You can edit any tab online and save it as your Personal.

You can edit, replace or remove any tab part or add personal notes – all changes will be seen only by you.

Personal tabs can be accessed anytime from any device, even offline.
Learn more »
Give kudos to tab author, rate the tab!
1 2 3 4 5
comments
print report bad tab
2 comments total.
0 reply
thatsbogus 75 Apr 13, 2017 11:09 PM

I think it's a C Am progression in the chorus

0 reply
estuary 641 Apr 29, 2017 12:36 AM

That sounds way better, thank you!

guest
You may want to rate the tab now too:
select rating
Wanna post a correction for this tab? Suggest correction