Oops, an error
Loading. Please wait.

Youre The One Lee tab

version 2
version 2

Whole song

  • Sounds identical to MP3 version. Uses live version for reference.
139 views 1 this week
no commentswrite comment
1 2 3 4 5
3 more votes to show rating
add to favorites
×
Save as Personal and add changes to this tab that will be seen only by you. Learn more ›
×
You can save this tab as Personal to edit and correct it or add notes. All changes will be seen only by you. Learn more »
launch autoscroll
font size
0
reset
how to read this tab
guitar tuner
edit
Autoscroll
slow
fast
+/-
esc
set tempo
stop
Author
About this tab version
Sounds identical to MP3 version. Uses live version for reference. Was this info helpful? Yes No
------------------------------------------------------------------------------- 

                    You're the One Lee - Miracle Legion

-------------------------------------------------------------------------------
Album: Me and Mr Ray
Tabbed by: Estuary
Email: lreaper3@yahoo.com

Tuning: Standard

[Intro/Chorus]

I would advise using your remaining middle and ring finger to mute the low E string.
Strumming pattern DUD UD UD

    Asus2            A6add9           Asus2            Asus2
e|--0-0-0--0-0--0-0--0-0-0--0-0--0-0--0-0-0--0-0--0-0--0-0-0--0-0--0-0--|
B|--0-0-0--0-0--0-0--0-0-0--0-0--0-0--0-0-0--0-0--0-0--0-0-0--0-0--0-0--|
G|--9-9-9--9-9--9-9--6-6-6--6-6--6-6--4-4-4--4-4--4-4--4-4-4--4-4--4-4--|
D|--7-7-7--7-7--7-7--4-4-4--4-4--4-4--2-2-2--2-2--2-2--2-2-2--2-2--2-2--|
A|--0-0-0--0-0--0-0--0-0-0--0-0--0-0--0-0-0--0-0--0-0--0-0-0--0-0--0-0--|
E|----------------------------------------------------------------------|

[Verse]

e|-------------------------------------------|
B|------0-----0------------------------------|
G|-------------------------------------------| x4
D|----2-----2-----2---2s4-4-2p0---2s4-4-2p0--|
A|--0-----4-----0---0-----------0------------|
E|-------------------------------------------|

[Bridge]
Palm mute all but let the final note ring on the fourth play.
e|-----------------------------------------------------------------|
B|-----------------------------------------------------------------|
G|-----------------------------------------------------------------|
D|-----------------------------------------------------------------| x4
A|-0-0-0-0-0-0-0-0-4-4-4-4-4-4-4-4-7-7-7-7-7-7-7-7-7-7-7-7-7-7-7-7-|
E|-----------------------------------------------------------------|

There's some faint backing guitar after the second playing of the bridge.

e|--9-9-9-9-9-9-9-9-7-7-7-7-7-7-7-7-5-5-5-5-5-5-5-5-0-0-0-0-0-0-0-0--|
B|-------------------------------------------------------------------|
G|-------------------------------------------------------------------|
D|-------------------------------------------------------------------| x2
A|-------------------------------------------------------------------|
E|-------------------------------------------------------------------|

Song structure:
[Intro] x2
[Verse]
[Chorus]
[Verse]
[Chorus] x4
[Bridge]
[Verse]
[Chorus] (Repeat until fade)

s = slide
p = pull off

            
            
Suggest correction
Creating personal tab
Creating personal tab
You can edit any tab online and save it as your Personal.

You can edit, replace or remove any tab part or add personal notes – all changes will be seen only by you.

Personal tabs can be accessed anytime from any device, even offline.
Learn more »
Give kudos to tab author, rate the tab!
1 2 3 4 5
comments
print report bad tab
guest
You may want to rate the tab now too:
select rating
Wanna post a correction for this tab? Suggest correction