Oops, an error
Loading. Please wait.

Mt St Helens chords

version 1
version 1

Whole song

by Mirah
2,922 views 3 this week
no commentswrite comment
1 2 3 4 5
3 more votes to show rating
add to favorites
×
Save as Personal and add changes to this tab that will be seen only by you. Learn more ›
×
You can save this tab as Personal to edit and correct it or add notes. All changes will be seen only by you. Learn more »
launch autoscroll
font size
0
reset
transpose
0
reset
display chords
guitar tuner
edit
Autoscroll
slow
fast
+/-
esc
set tempo
stop
Strumming
There is no strumming pattern for this song yet. and get +5 IQ
The other tab was pretty good, but I tried tab it a little more accurately.
I tried to space it so that it is clear where verses and choruses are.
I hope it is not too confusing to follow. For questions or requests email me at
marysghosts@hotmail.com



Intro

------------------------------------------------------------|
---------------------2-2----------------------------------2-|
---2-----1-----------2-2-----------------2-----1----------2-|
-----4---------------2-2-------------------4--------------2-|
-----------0-0h2-0-0-----0h2---------------------2-2h4-0----|
-2-----0-------------------------------2-----0--------------|




VERSE 1

------------------------------------------------------------|
---------------------2-2----------------------------------2-|
---2-----1-----------2-2-----------------2-----1----------2-|
-----4---------------2-2-------------------4--------------2-|
-----------0-0h2-0-0-----0h2---------------------2-2h4-0----|
-2-----0-------------------------------2-----0--------------|
Rest up in the gentle sway;           sister make a flower place
The mother, father, brother grace;    a river of stones to keep her safe




CHORUS

------------------------------------------------------------|
---------------------2-2----------------------------------2-|
---2-----1-----------2-2-----------------2-----1----------2-|
-----4---------------2-2-------------------4--------------2-|
-----------0-0h2-0-0-----0h2---------------------2-2h4-0----|
-2-----0-------------------------------2-----0--------------|
Come away with me today;              everything should be okay
Fill you pockets while you pray;      XXXXXXXXXXXXXXXXXXXXXXX

---------------------|
---------------------|
---2-----1-----------|
-----4---------------|
-----------0-0h2-0---|
-2-----0-----------4-|
With some to eat and some to save
Nobody has to stay

-------------------------------------------------------------------------------------------------|
---------------------2-2----------------------------------2-------------------------------2-2----|
---2-----1-----------2-2-----------------2-----1----------2-------------2-----1-----------2-2----|
-----4---------------2-2-------------------4--------------2---------------4---------------2-2----|
-----------0-0h2-0-0-----0h2---------------------2-2h4-0------------------------0-0h2-0-0-----0h2|
-2-----0-------------------------------2-----0------------------------2-----0--------------------|
But we wish they would anyways




VERSE 2

----------------------------------------------------------------|
---------------------2-2--------------------------------------2-|
---2-----1-----------2-2---------------------2-----1----------2-|
-----4---------------2-2-----------------------4--------------2-|
-----------0-0h2-0-0-----0h2-------------------------2-2h4-0----|
-2-----0-----------------------------------2-----0--------------|
It is the evening of the days;            where we have chosen to remain
And while you hurt with all that pain;    the stars will kiss your pretty face




CHORUS

------------------------------------------------------------|
---------------------2-2----------------------------------2-|
---2-----1-----------2-2-----------------2-----1----------2-|
-----4---------------2-2-------------------4--------------2-|
-----------0-0h2-0-0-----0h2---------------------2-2h4-0----|
-2-----0-------------------------------2-----0--------------|
Come away with me today;              everything should be okay
Fill you pockets while you pray;      X(don't play this time)X

---------------------|
---------------------|
---2-----1-----------|
-----4---------------|
-----------0-0h2-0---|
-2-----0-----------4-|
With some to eat and some to save
Nobody has to stay

---------------------------|
---------------------2-2---|
---2-----1-----------2-2---|
-----4---------------2-2---|
-----------0-0h2-0-0-----0-|
-2-----0-------------------|
But we wish they would anyways.

            
            
Suggest correction
Creating personal tab
Creating personal tab
You can edit any tab online and save it as your Personal.

You can edit, replace or remove any tab part or add personal notes – all changes will be seen only by you.

Personal tabs can be accessed anytime from any device, even offline.
Learn more »
Give kudos to tab author, rate the tab!
1 2 3 4 5
comments
print report bad tab
guest
Wanna post a correction for this tab? Suggest correction