Oops, an error
Loading. Please wait.

Special Death tab

version 1
version 1

Whole song

by Mirah
9,143 views 6 this week
3 commentsread comments
1 2 3 4 5
x 6
add to favorites
×
Save as Personal and add changes to this tab that will be seen only by you. Learn more ›
×
You can save this tab as Personal to edit and correct it or add notes. All changes will be seen only by you. Learn more »
launch autoscroll
font size
0
reset
how to read this tab
guitar tuner
edit
Autoscroll
slow
fast
+/-
esc
set tempo
stop
Difficulty
Well, this is my first tab.

This song is pretty much the same two chords the whole way through.


  Dm                                    A
e|---1--------1---------1-------------------0-----|
B|-------2--------2---------2-------------------2-|
G|-----3--------3---------3-------------------2---|
D|-0------------------0---------------------------|
A|----------0-------------------0---3---0---------|
E|------------------------------------------------|

  A                                  Dm
e|----0---------0-----------------------|
B|--------2---------2-------------------|
G|------2---------2---------------------|
D|-0----------------------3---2---0-----|
A|-----------0--------------------------|
E|--------------------------------------|


All you have to do is repeat the Dm and A tab all the way through the song.
It's very simple, and you should be able to pick up chord-change times very easily if 
listen to the song.


Let me know if there are any errors.
Thanks.

            
            
Suggest correction
Creating personal tab
Creating personal tab
You can edit any tab online and save it as your Personal.

You can edit, replace or remove any tab part or add personal notes – all changes will be seen only by you.

Personal tabs can be accessed anytime from any device, even offline.
Learn more »
comments
print report bad tab
3 comments total.
+1 reply
clausjuhh 21 Jan 02, 2012 05:54 AM

good, but the chord isn't an A but asus2.

+3 reply
lois.viginier 10 Aug 02, 2013 07:27 AM

Dm is: e|---1------- and not : e|---1-------
B|-------3--- B|-------2---
G|-----2----- G|-----3-----
D|-0--------- D|-0---------

+1 reply
lois.viginier 10 Aug 03, 2013 02:05 AM

it's not a Asus2 but a real A.
and A is : e|----0----- and not : e|----0-----
B|--------2- B|--------2-
G|------2--- G|------2---
D|-2-------- D|-0--------

guest
Wanna post a correction for this tab? Suggest correction