Oops, an error
Loading. Please wait.

Sweepstakes Prize tab

version 1
version 1

Whole song

Interactive

by Mirah
4,906 views 12 this week
no commentswrite comment
1 2 3 4 5
3 more votes to show rating
add to favorites
×
Save as Personal and add changes to this tab that will be seen only by you. Learn more ›
×
You can save this tab as Personal to edit and correct it or add notes. All changes will be seen only by you. Learn more »
launch autoscroll
font size
0
reset
how to read this tab
guitar tuner
edit
Autoscroll
slow
fast
+/-
esc
set tempo
stop
Author
*BIG NOTE!!!!*
The chords for this song are posted underneath the tab.
For some reason, the chord tab couldn't be accepted,
so anyone wanting the chords should look below the tab.
ENJOY!
   miriamleaman@hotmail.com


-TAB!!!!-

NOTE ABOUT CHORUS:
Define E, Bm, C#m, A, and F#m
    E   Bm  C#m  A    F#m
e|--x----x-----x-------x-----x-----|
B|--x----x-----x-------x-----x-----|
G|--9----x-----x-------x-----x-----|
D|--9----9-----11------7-----4-----|
A|--7----9-----11------7-----4-----|
E|--7---7------9-------5-----2-----|


Intro
Do this 4 times
e|----------------------------|
B|----------------------------|
G|----------------------------|
D|----------------------------|
A|--2-4-7-------2-4-7-0-------|
E|----------0-----------------|
End intro with this
e|--------------|
B|--------------|
G|--------------|
D|--------------|
A|--2-4-7-------|
E|----------0---|

Do this twice before the verses and during the verses
e|----------------------------|
B|----------------------------|
G|----------------------------|
D|----------------------------|
A|--2-4-7-------2-4-7-0-------|
E|----------0-----------------|
End verses with this
e|--------------|
B|--------------|
G|--------------|
D|--------------|
A|--2-4-7-------|
E|----------0---|

VERSE 1
You remind me of a firework, boy
You touch the ceiling, you touch the floor
You sparkle and burn but you take your time
And I bet I could carry you across state lines

CHORUS
E   Bm   C#m    A   Bm  F#m

E   Bm   C#m    A   Bm  F#m
I'd tell you why, but I don't know
It's simple and so complicated
I could walk all day on the railroad track 
E   Bm   C#m    A   Bm  E
But there's much more to it than that

VERSE 2
You know all of my secret ideas
The ones I'm giving up on and the ones I'll keep
And everybody sees a funny look in our eyes
'Cause we know that we already won the sweepstakes prize

CHORUS

VERSE 3
I ask you if you ever think that maybe
It's what's inside of us that drives us crazy
Fingers feeling underneath your skin
There's blood and bones and some rivers to fall in

CHORUS

VERSE 4
I'm so lucky because I asked you once
"What are you doing? Do you wanna come up
For a cup of tea? Come visit with me
We'll play guitars and I'll give you my number"

CHORUS

CHORUS

End with the verse thingy however many times.



-CHORDS!!!!-

First of all, the movement of your fingers 
for this song is really easy. In the verses you 
use the regular(open) chords E and A.
Define E and A:
    E   A
e|--0---0--|
B|--0---2--|
G|--1---2--|
D|--2---2--|
A|--2---0--|
E|--0---0--|

But for the verses, the chords are the 
barre chords except you don't play all of the chord 
so I will define those and put an "x" on the notes 
not to play. Use these only for the 
chorus. It is a really simple patern.
Define E, Bm, C#m, A, and F#m
    E   Bm  C#m  A    F#m
e|--x----x-----x-------x-----x-----|
B|--x----x-----x-------x-----x-----|
G|--9----x-----x-------x-----x-----|
D|--9----9-----11------7-----4-----|
A|--7----9-----11------7-----4-----|
E|--7---7------9-------5-----2-----|

For questions, comments, requests and anything else 
message me or email me at miriamleaman@hotmail.com!


Intro (Chord substitutions would be E  A  E  A)
Do this 5 times
e|----------------------------|
B|----------------------------|
G|----------------------------|
D|----------------------------|
A|--2-4-7-------2-4-7-0-------|
E|----------0-----------------|
End intro with this
e|--------------|
B|--------------|
G|--------------|
D|--------------|
A|--2-4-7-------|
E|----------0---|


Do this twice before the verses and during the verses
(chords are posted for substitution)
e|----------------------------|
B|----------------------------|
G|----------------------------|
D|----------------------------|
A|--2-4-7-------2-4-7-0-------|
E|----------0-----------------|

E		A
You remind me of a firework, boy
You touch the ceiling, you touch the floor
You sparkle and burn but you take your time
E		A		E
And I bet I could carry you across state lines

E   Bm   C#m    A   Bm  F#m

E   Bm   C#m    A   Bm  F#m
I'd tell you why, but I don't know
It's simple and so complicated
I could walk all day on the railroad track 
E   Bm   C#m    A   Bm  E
But there's much more to it than that

E	A	E	A

E		A
You know all of my secret ideas
The ones I'm giving up on and the ones I'll keep
And everybody sees a funny look in our eyes
E		A		E
'Cause we know that we already won the sweepstakes prize

E   Bm   C#m    A   Bm  F#m

E   Bm   C#m    Am  Bm  F#m
I'd tell you why, but I don't know
It's simple and so complicated
I could walk all day on the railroad track 
E   Bm   C#m    A   Bm  E
But there's much more to it than that

E	A	E	A

E		A
I ask you if you ever think that maybe
It's what's inside of us that drives us crazy
Fingers feeling underneath your skin
E		A		E
There's blood and bones and some rivers to fall in

E   Bm   C#m    A   Bm  F#m

E   Bm   C#m    A    Bm  F#m
I'd tell you why, but I don't know
It's simple and so complicated
I could walk all day on the railroad track 
E   Bm   C#m    A   Bm  E
But there's much more to it than that

E		A
I'm so lucky because I asked you once
"What are you doing? Do you wanna come up
For a cup of tea? Come visit with me
E		A		E
We'll play guitars and I'll give you my number"

E   Bm   C#m    A   Bm  F#m

E   Bm   C#m    A   Bm  F#m
I'd tell you why, but I don't know
It's simple and so complicated
I could walk all day on the railroad track 
E   Bm   C#m    A   Bm  E
But there's much more to it than that

E   Bm   C#m    A   Bm  F#m

E   Bm   C#m    A   Bm  F#m
I'd tell you why, but I don't know
It's simple and so complicated
I could walk all day on the railroad track 
E   Bm   C#m    A   Bm  E
But there's much more to it than that.

            
            
Suggest correction
Creating personal tab
Creating personal tab
You can edit any tab online and save it as your Personal.

You can edit, replace or remove any tab part or add personal notes – all changes will be seen only by you.

Personal tabs can be accessed anytime from any device, even offline.
Learn more »
Give kudos to tab author, rate the tab!
1 2 3 4 5
comments
print report bad tab
guest
You may want to rate the tab now too:
select rating
Wanna post a correction for this tab? Suggest correction