Oops, an error
Loading. Please wait.

Sweepstakes Prize tab

version 2
version 2

Whole song

Interactive

by Mirah
2,007 views 1 this week
no commentswrite comment
1 2 3 4 5
2 more votes to show rating
add to favorites
×
Save as Personal and add changes to this tab that will be seen only by you. Learn more ›
×
You can save this tab as Personal to edit and correct it or add notes. All changes will be seen only by you. Learn more »
launch autoscroll
font size
0
reset
how to read this tab
guitar tuner
edit
Autoscroll
slow
fast
+/-
esc
set tempo
stop
Author
Just fixing some inaccuracies in this song... Hope this one's up to par.
-Ani


Play this 4 times
(Thingy1)
E|---------------------|
B|---------------------|
G|---------------------|
D|------2---------2----|
A|--2-4-------2-4---0--|
E|--------0------------|

Go into this – Vocals come in after two times (pretty much the same thing with a little variation)
(Thingy2)
E|------------------------------|
B|------------------------------|
G|------------------------------|
D|------2-----------2-----------|
A|--2-4---------2-4---0---0-0h2-|
E|--------0--0------------------|

 You remind me of a firework, boy
 You touch the ceiling, you touch the floor
 You sparkle and burn but you take your time
(Thingy3)
E|------------------------------------|
B|------------------------------------|
G|------------------------------------|
D|------2-----------2-----------------|
A|--2-4---------2-4---0---0-0h2-2s7-7-|
E|--------0--0------------------------|
 And i bet i could carry you across state lines

(Thingy4)
E|----------------------------|
B|----------------------------|
G|----------------------------|
D|--4-4-6-6--6--6-------------|
A|--2-2-4-4--4--4-6s7-7—-4s9--|
E|----------------4s5-5—-2s7--|

Repeat this throughout verse
(Thingy5)
E|--------------------------------|
B|--------------------------------|
G|--------------------------------|
D|--9-----------------------------|
A|--7-9-9s11-11-11—-6s7-7—-4s9-9--|
E|----7-7s9—-9—-9---4s5-5—-2s7-7--|
 I'd tell you why, but i don't know
 It's simple and so complicated
 I could walk all day on the railroad track
 But there's much more to it than that

 (Play thingy2 again, two times before it goes into vocals again)
 You know all of my secret ideas
 The ones i'm giving up on and the ones i'll keep
 And everybody sees a funny look in our eyes
(Thingy3 again)
 'Cause we know that we already won the sweepstakes prize

(Thingy4)

(Thingy5)
 I'd tell you why, but i don't know
 It's simple and so complicated
 I could walk all day on the railroad track
 But there's much more to it than that

(Thingy 2, twice before vocals)
 I ask you if you ever think that maybe
 It's what's inside of us that drives us crazy
 Fingers feeling underneath your skin
 There's blood and bones and some rivers to fall in

(Thingy4)

(Thingy5)
 I'd tell you why, but i don't know
 It's simple and so complicated
 I could walk all day on the railroad track
 But there's much more to it than that
 (Thingy 2, twice before vocals-this is where she “rocks out,” for lack of a better 
drums and distortion)
 I'm so lucky because i asked you once
 What are you doing? Do you wanna come up
 For a cup of tea? Come visit with me
 We'll play guitars and i'll give you my number

 (Thingy4)

 (Thingy5)
 I'd tell you why, but i don't know
 It's simple and so complicated
 I could walk all day on the railroad track
 But there's much more to it than that

 I'd tell you why, but i don't know
 It's simple and so complicated
 I could walk all day on the railroad track
 But there's much more to it than that

Play this (Thingy 6) 4 times
E|------------------------|
B|------------------------|
G|--9-----4-----6-----2---|
D|------------------------|
A|--7-----2-----4-----0---|
E|------------------------|

Ending thingy.
E|----------------------------------|
B|----------------------------------|
G|--2---2--4---4—-4—-6---6—-9---2---|
D|----------------------------------|
A|--0---0--2---2—-2—-4---4—-7---0---|
E|----------------------------------|

E|-----------------------------------------------|
B|-----------------------------------------------|
G|--2---2--4---4—-4—-6---6—-9---2---2s4—-4---9---|
D|-----------------------------------------------|
A|--0---0--2---2—-2—-4---4—-7---0---0s2—-2---7---|
E|-----------------------------------------------|

            
            
Suggest correction
Creating personal tab
Creating personal tab
You can edit any tab online and save it as your Personal.

You can edit, replace or remove any tab part or add personal notes – all changes will be seen only by you.

Personal tabs can be accessed anytime from any device, even offline.
Learn more »
Give kudos to tab author, rate the tab!
1 2 3 4 5
comments
print report bad tab
guest
You may want to rate the tab now too:
select rating
Wanna post a correction for this tab? Suggest correction