Oops, an error
Loading. Please wait.

Over You chords

version 4
version 4

Whole song

9,212 views 57 this week
3 commentsread comments
1 2 3 4 5
x 20
add to favorites
×
Save as Personal and add changes to this tab that will be seen only by you. Learn more ›
×
You can save this tab as Personal to edit and correct it or add notes. All changes will be seen only by you. Learn more »
launch autoscroll
font size
0
reset
transpose
0
reset
simplify chords
display chords
guitar tuner
edit
Autoscroll
slow
fast
+/-
esc
set tempo
stop
Strumming
There is no strumming pattern for this song yet. and get +5 IQ
    
     Hi there! I had a request to do a "cleaned up"
tab/chords of version #3.  I love this song so much, 
and chord placement is a biggie for me so I took the 
time to fix it. (Version 3 cannot be edited because 
it was submitted by a non- registered UG member.)
 
I watched Blake play it and these are the chords he 
uses.  I fixed chords here and there from v.3 but the 
picking parts at the end is all me:) And credit for 
the basic D G D A goes to whoever submitted ver. 3! :)

*The (D)'s are a quick one strum and can be ignored,
but that's how Blake plays it;)  Also, the whole song
can be strummed if you can't pick, just follow the chords :)

Come visit at www.liveloveguitar.com
Or follow on instagram, I'm llguitar


      EADGBe
Asus4[x02230]
Em/D [022030]



STANDARD TUNING w/
CAPO ON 4


Intro picking-
e|-------------------------------------------------|
B|----------3------------------------3-------------|
G|------0-2-------0-2------------0-2------0-2------|
D|----4---------4-----2--0-----4--------4-----2----|
A|-------------------------------------------------|
E|-------------------------------------------------|

Intro-

*strum (some picking the 2nd time through)
D G  D Asus4  x2
*pick
D G  D Asus4  x2
*strum
D G  D Asus4  x2



D           G     D         Asus4
Weather man said, its gonna snow
D        G          D           Asus4 -once
By now I should, be used to the cold


D G  D Asus4


D       G              D     Asus4
Mid February shouldn't be so scary
       D      G
It was only December
D         Asus4                  
I still remember  
    Em/D            D       G       G -once
The presents... the tree... you and me



D               Asus4
  But you went away
   Em/D         
How  dare you?
 (D) G          D
 I   miss you
                  Asus4
They say I'll be okay
            Em/D     (D)             
But I'm not going to, 
G -once
Ever get over you


D G  D Asus4 x2



D       G     D            Asus4
Living alone, here in this place
D          G        D        Asus4 -once
I think of you, and I'm not afraid


D G  D Asus4


D             G       D            Asus4
Your favorite records make me feel better
       D         G
'Cause you sing along
     D     Asus4
With every song
           Em/D    D        G             G -once
I know you didn't, mean, to give them, to me



D               Asus4
  But you went away
   Em/D        
How  dare you?
 (D) G          D
 I   miss you
                  Asus4
They say I'll be okay
            Em/D             
But I'm not going to, 
G                 D G  D Asus4
Ever get over you


D G  D Asus4 


          Em/D*        D*           
It really sinks in, ya know, 
       G*         G* 
When I see it, in stone
                                                  
(picking)
       D               A              Em             G
e|--------------------------------------------------------3-3----|
B|------3--------------0h2--------------------------------3-3----|
G|----2---2---2------2-----2---2--------0---0---------0---0-0----|Go right into the D
D|--0-------0----------------2--------2---2---------0---0-0-0----|after these 2 strums 
A|-----------------0--------------------------------------2-2----|of the G
E|----------------------------------0-------------3-------3-3----|

  D                  Asus4        Em/D            G          D -back to strumming
    But  you  went  away       How  dare you?  I  miss you
            

(D)               Asus4
They say I'll be okay
            Em/D             
But I'm not going to, 
G -once            D G  D Asus4  D G  D A -once
Ever get over you

Picking for outro-
     D           Dsus2             D             ?         A
e|---------------------------------------------------------0--------|
B|--------3---3------3p2----2p0---------3---3--------------2--------|
G|----2p0---2------2------2---------2p0---2-------0-2------2--------|
D|--0------------0----------------0-------------4----------2--------|
A|------------------------------------------------------------------|
E|------------------------------------------------------------------|



Have fun!!!
Christy

            
            
Suggest correction
Creating personal tab
Creating personal tab
You can edit any tab online and save it as your Personal.

You can edit, replace or remove any tab part or add personal notes – all changes will be seen only by you.

Personal tabs can be accessed anytime from any device, even offline.
Learn more »
comments
print report bad tab
3 comments total.
0 reply
mindystanley 82 May 24, 2013 10:42 AM

Wow! That was fast!! Thanks, it's perfect!!!! =)

0 reply
MrOmer 2,351 Jun 17, 2014 03:59 AM

This is the best one so far.
I'd suggest putting playing this line like this...
Em7 D/F# G G -once
The presents... the tree... you and me
of course playing it that way int the other similar parts

0 reply
MrOmer 2,351 Jun 17, 2014 04:27 AM

Hi just notice.. this part should be Em D/F# instead of Em/D and Asus4
Em D/F#
It really sinks in, ya know,

guest
You may want to rate the tab now too:
select rating
Wanna post a correction for this tab? Suggest correction