Oops, an error
Loading. Please wait.

Boogie Woogie tab

version 2
version 2

Whole song

by Misc
5,539 views 12 this week
2 commentsread comments
1 2 3 4 5
x 4
add to favorites
×
Save as Personal and add changes to this tab that will be seen only by you. Learn more ›
×
You can save this tab as Personal to edit and correct it or add notes. All changes will be seen only by you. Learn more »
launch autoscroll
font size
0
reset
how to read this tab
guitar tuner
edit
Autoscroll
slow
fast
+/-
esc
set tempo
stop
Author
Tabbers playing skills
advanced +
This is the part played by the rythm guitar.
It's easy to play and fun to play.
If you want to play the lead guitar part, please browse again and find another tab.
You can play it as they say, but I also have a way with power chords.
I'll post that one later.


E------------------------------------------------------------------|
B------------------------------------------------------------------|
G------------------2-2-4-4-2-2-4-4---------------------------------|
D--2-2-4-4-2-2-4-4-0-0-0-0-0-0-0-0-2-2-4-4-2-2-4-4-2-2-4-4-2-2-4-4-|
A--0-0-0-0-0-0-0-0-------------------0-0-0-0-0-0-0-0-0-0-0-0-0-0-0-|
E------------------------------------------------------------------|

E-------------------------------------------------------------------|
B--2-2-4-4-2-2-4-4-2-2-4-4-2-2-4-4----------------------------------|
G--0-0-0-0-0-0-0-0-0-0-0-0-0-0-0-0-2-2-4-4-2-2-4-4------------------|
D----------------------------------0-0-0-0-0-0-0-0--2-2-4-4-2-2-4-4-|
A---------------------------------------------------0-0-0-0-0-0-0-0-|
E-------------------------------------------------------------------|

E-------------------------------------------------------------------|
B-------------------------------------------------------------------|
G------------------2-2-4-4-2-2-4-4----------------------------------|
D------------------0-0-0-0-0-0-0-0-2-2-4-4-2-2-4-4------------------|
A--2-2-4-4-2-2-4-4-----------------0-0-0-0-0-0-0-0-2-2-4-4-2-2-4-4--|
E--0-0-0-0-0-0-0-0---------------------------------0-0-0-0-0-0-0-0\-|

Repeat as many times as you want.
Last time end with this:

E------------|
B------------|
G------------|
D--------3-2-|
A--2-----2-0-|
E--0---------|

            
            
Suggest correction
Creating personal tab
Creating personal tab
You can edit any tab online and save it as your Personal.

You can edit, replace or remove any tab part or add personal notes – all changes will be seen only by you.

Personal tabs can be accessed anytime from any device, even offline.
Learn more »
comments
print report bad tab
2 comments total.
+1 reply
BaBaBoeGaH 82 Dec 29, 2008 01:21 AM

If you guys want to do the same sound but then for the lead guitar try using power chords.
For the D and A part use a A5 chords, for the part played on the G and D strings use a D5 chord and for the part played on the A and E string use a E5 chords.
Where you play them, try it yourself.
Find out what you like the most.
Enjoy!

0 reply
MuesliBol 10 Jan 20, 2009 08:12 AM

This one is funny to play =P
Sounds good!

guest
You may want to rate the tab now too:
select rating
Wanna post a correction for this tab? Suggest correction