Oops, an error
Loading. Please wait.

Dig Dug Theme tab

by Misc
2,426 views 6 this week
1 commentread comment
1 2 3 4 5
2 more votes to show rating
add to favorites
×
Save as Personal and add changes to this tab that will be seen only by you. Learn more ›
×
You can save this tab as Personal to edit and correct it or add notes. All changes will be seen only by you. Learn more »
launch autoscroll
font size
0
reset
how to read this tab
guitar tuner
edit
Autoscroll
slow
fast
+/-
esc
set tempo
stop
Author
 So this is what I came up with when my friend said you should learn the dig dug theme.  
i looked it up.  And it wasnt on here.:[ so i made this.
If this is not right it purdy dang close. E-mail me with corrections at bryanjschaefer@gmail.com.


E------------------------|
B------------------------|    __
G------------------------| \/  /
D---------5-5-5-5-5-5-5--| /\ /
A--0-3-4-5-5-4-4-3-3-3---|
E------------------------|

            
            
Suggest correction
Creating personal tab
Creating personal tab
You can edit any tab online and save it as your Personal.

You can edit, replace or remove any tab part or add personal notes – all changes will be seen only by you.

Personal tabs can be accessed anytime from any device, even offline.
Learn more »
Give kudos to tab author, rate the tab!
1 2 3 4 5
comments
print report bad tab
1 comment total.
0 reply
fender66 10 Jul 15, 2008 08:26 PM

i play this like this

E---5--5---5--5---5--5---5--5-
B-3--3----2--2---1--1---0--0--
G-----------------------------
D-----------------------------
A-----------------------------
E-----------------------------
and sometimes i do this at the end to start all over...
E--2-0--2-0--2-0--2-0--2(let ring)-0--
B-------------------------------------
G-------------------------------------
D-------------------------------------
A-------------------------------------
E-------------------------------------

guest
You may want to rate the tab now too:
select rating
Wanna post a correction for this tab? Suggest correction