Oops, an error
Loading. Please wait.

Funk Slap Bass bass

by Misc
14,642 views 51 this week
no commentswrite comment
1 2 3 4 5
x 4
add to favorites
×
Save as Personal and add changes to this tab that will be seen only by you. Learn more ›
×
You can save this tab as Personal to edit and correct it or add notes. All changes will be seen only by you. Learn more »
launch autoscroll
font size
0
reset
guitar tuner
edit
Autoscroll
slow
fast
+/-
esc
set tempo
stop
Author
Difficulty
intermediate
Funk Slap Bass - Misc
Tabbed By : Paredes
e-mail: dwayne.paredes@yahoo.com
Tuning: Standard (GDAE)

G|----x-----------------2-------------------------------------------------|
D|------------5--5--------------------------------------------------------|
A|------------------0-0x--x--2-3-3h2--------------------------------------|
E|-0-x-x-2-3x--x--3------------------3-2h3--------------------------------|

G|--------x------------------2------5------7------------------------------|
D|-0h2-----------5--5-----------------------------------------------------|
A|----------------------0-0x--x-2-3---3/5----5----------------------------|
E|----0-x---2-3x---x--3-------------------------0~------------------------|

This is really just a base, so feel free to build off of it.

************************************

| x  Dead note
| h  Hammer-on
| /  Slide up
| ~  Vibrato

************************************

            
            
Suggest correction
Creating personal tab
Creating personal tab
You can edit any tab online and save it as your Personal.

You can edit, replace or remove any tab part or add personal notes – all changes will be seen only by you.

Personal tabs can be accessed anytime from any device, even offline.
Learn more »
comments
print report bad tab
guest
You may want to rate the tab now too:
select rating
Wanna post a correction for this tab? Suggest correction