Oops, an error
Loading. Please wait.

Nokia Theme tab

version 1
version 1

Whole song

Interactive

by Misc
67,344 views 72 this week
5 commentsread comments
1 2 3 4 5
x 8
add to favorites
×
Save as Personal and add changes to this tab that will be seen only by you. Learn more ›
×
You can save this tab as Personal to edit and correct it or add notes. All changes will be seen only by you. Learn more »
launch autoscroll
font size
0
reset
how to read this tab
guitar tuner
edit
Autoscroll
slow
fast
+/-
esc
set tempo
stop
Author
Difficulty
This is the nokia ring tone thing, i think its amusing to play at certain times,
i think it sounds right.


High Version

e---------------------------------------------|
b--17--15--------14p12--------12--------------|
g---------11-13-------------------14-------14-|
d----------------------12-14----------11-14---|
a---------------------------------------------|
e---------------------------------------------|

Lower Version
e-0------------------------------|
b---3--------2p0----0------------|
g---------1-------------2------2-|
d------4--------0-2----------2---|
a-------------------------4------|
e--------------------------------|

Enjoy
Cammies

            
            
Suggest correction
Creating personal tab
Creating personal tab
You can edit any tab online and save it as your Personal.

You can edit, replace or remove any tab part or add personal notes – all changes will be seen only by you.

Personal tabs can be accessed anytime from any device, even offline.
Learn more »
comments
print report bad tab
5 comments total. Showing first comments.
+1 reply
scarlet20 1,707 Jan 09, 2008 08:23 AM

WTF?! It should be like this

E|---12-10--------------------------------------|
B|-----------------14--12-----------------------|
G|----------11-13----------------14----------14-|
D|------------------------12-14-----14-11-14----|
A|----------------------------------------------|
E|----------------------------------------------|

+2 reply
Lord-O-Donuts 40 May 31, 2009 02:30 AM

e---------------------------------------------|
b--17--15--------14p12--------12--------------|
g---------11-13-------------------14-------14-|
d----------------------12-14----------11-14---|
a---------------------------------------------|
e---------------------------------------------|

0 reply
ajr901 20 Aug 23, 2009 07:16 AM

Can someone just freaking decide the way to play this please?!

guest
You may want to rate the tab now too:
select rating
Wanna post a correction for this tab? Suggest correction