Oops, an error
Loading. Please wait.

Adventure Time - Everything Stays bass

version 2
version 2

Whole song

  • Played with the ver. 2 chords. (https://tabs.ultim... Show more

Interactive

11,491 views 252 this week
3 commentsread comments
1 2 3 4 5
x 11
add to favorites
×
Save as Personal and add changes to this tab that will be seen only by you. Learn more ›
×
You can save this tab as Personal to edit and correct it or add notes. All changes will be seen only by you. Learn more »
launch autoscroll
font size
0
reset
guitar tuner
edit
Autoscroll
slow
fast
+/-
esc
set tempo
stop
EVERYTHING STAYS - Rebecca Sugar
Tabbed by: BEN J

G|--------0h2-|----4---2---|--------7-9-|----14------|
D|------------|------------|------9-----|0-----------|
A|------2-----|3-----------|------------|------------|
E|3-----------|------------|3-----------|------------|

G|--------4---|5---------0-|------------|------------|
D|------------|5-------2---|------------|------------|
A|7------3----|------------|5---3---2---|0-------5---|
E|------------|------------|------------|------------|

G|------------|------------|------------|----5-------|
D|------0-2---|--------5---|------5---7-|------------|
A|------------|3-----------|---5--------|6-----------|
E|3-----------|------------|3-----------|------------|

G|------------|------------|------------|------------|
D|2---------2-|--------2---|5---------5-|------------|
A|------------|3-----------|------------|5-----------|
E|------0-----|------------|----3-------|------------|

G|------------|5-----------|------------|------------|
D|------------|----------2-|------------|2-----------|
A|3-----------|----3-------|------------|------------|
E|------------|------------|0-----------|----0---0---|

G|------------|------------|------------|5---4-------|
D|7-----------|------------|------------|--------5---|
A|5-----------|2-------2---|3-----------|------------|
E|------------|------------|------------|------------|

G|------------|------------|------------|4-----2-----|
D|-5----------|5---4---2---|0-----------|--------5---|
A|3~----------|------------|2-----------|------------|
E|------------|------------|------------|------------|

G|------------|------------|------------|------------|
D|------------|1-----------|2-----------|------------|
A|0-------3---|2-----------|2-----------|------------|
E|------------|------------|------------|------------|

************************************

| h  Hammer-on
| ~  Vibrato

************************************

            
            
Suggest correction
Creating personal tab
Creating personal tab
You can edit any tab online and save it as your Personal.

You can edit, replace or remove any tab part or add personal notes – all changes will be seen only by you.

Personal tabs can be accessed anytime from any device, even offline.
Learn more »
comments
print report bad tab
3 comments total.
0 reply
miniyodadudei 56 Dec 20, 2016 08:15 PM, edited on December 21 2016, 01:17 am

The middle right before the chorus is wrong, there aren't enough notes.

+1 reply
miniyodadudei 56 Dec 20, 2016 08:19 PM

Nvrmind, it's good, the rhythm is a challenge XD.

0 reply
bjader20 67 Apr 28, 2017 12:04 PM

Hi Mini, I believe the notes are correct. Perhaps you are having trouble with the timing - give this instrumental version a listen https://soundcloud.com/staypuft/everything-stays-instrumental

guest
You may want to rate the tab now too:
select rating
Wanna post a correction for this tab? Suggest correction