Oops, an error
Loading. Please wait.

Bobs Burgers Theme ukulele

version 2
version 2

Whole song

  • All strums and extra notes included.
1,315 views 9 this week
1 commentread comment
1 2 3 4 5
x 9
add to favorites
×
Save as Personal and add changes to this tab that will be seen only by you. Learn more ›
×
You can save this tab as Personal to edit and correct it or add notes. All changes will be seen only by you. Learn more »
launch autoscroll
font size
0
reset
transpose
0
reset
display chords
guitar tuner
edit
Autoscroll
slow
fast
+/-
esc
set tempo
stop
Author
Difficulty
About this tab version
All strums and extra notes included. Was this info helpful? Yes No
Strumming
There is no strumming pattern for this song yet. and get +5 IQ
Hello! Here's an accurate ukulele tab for the intro of Bob's Burgers
If you're interested in seeing and hearing the rhythm's, here's the same part but as music that I published
to Noteflight
https://www.noteflight.com/scores/view/4b714f67dac054633a5c7a5a6c3e0be1f4d86092

A|---2-2-5---2----5-5--2-5-----0-0-0-2-0-0-0----2-2-0-0-0-2-----|
E|---2-2-2---2----2-2--2-2-----0-0-0-0-0-0-0----0-0-0-0-0-0-----|
C|---2-2-2---2----2-2--2-2-----1-1-1-1-1-1-1----1-1-1-1-1-1-----|
G|---2-2-2---2----2-2--2-2-----2-2-2-2-2-2-2----2-2-2-2-2-2-----|


A|---0--4-0-0---4-0--0-4-----0-2-0-0--0--2-0-2-0-0--------------|
E|---2--2-2-2---2-2--2-2-----0-0-0-0--0--0-0-0-0-0--------------|
C|---1--1-1-1---1-1--2-2-----1-1-1-1--1--1-1-1-1-1--------------|
G|---2--2-2-2---2-2--2-2-----2-2-2-2--0--0-0-0-0-2--------------|


(Repeat from beginning once)


A|---2--2-2-2--2-2--2-2---2--2-2-2--2-2--2-2----3--3-3-3--3-3--3-3-----|
E|---3--3-3-3--3-3--3-3---3--3-3-3--3-3--3-3----3--3-3-3--3-3--3-3-----| (fade out while getting
C|---2--2-2-2--2-2--2-2---2--2-2-2--2-2--2-2----3--3-3-3--3-3--3-3-----|  to the end)
G|---0--0-0-0--0-0--0-0---0--0-0-0--0-0--0-0----0--0-0-0--0-0--0-0-----|





98angelblue

            
            
Suggest correction
Creating personal tab
Creating personal tab
You can edit any tab online and save it as your Personal.

You can edit, replace or remove any tab part or add personal notes – all changes will be seen only by you.

Personal tabs can be accessed anytime from any device, even offline.
Learn more »
comments
print report bad tab
1 comment total.
0 reply
Captain_Obvious 237 Jan 25, 2017 03:29 AM, edited at 08:30 am

The strums are incorrect.It's not rhythmic and doesn't match the song.Some posted chords would help too.

guest
You may want to rate the tab now too:
select rating
Wanna post a correction for this tab? Suggest correction