Oops, an error
Loading. Please wait.

Cinderella - Lavenders Blue tab

2,101 views 39 this week
no commentswrite comment
1 2 3 4 5
x 8
add to favorites
×
Save as Personal and add changes to this tab that will be seen only by you. Learn more ›
×
You can save this tab as Personal to edit and correct it or add notes. All changes will be seen only by you. Learn more »
launch autoscroll
font size
0
reset
how to read this tab
guitar tuner
edit
Autoscroll
slow
fast
+/-
esc
set tempo
stop
[Verse]

   A             A             D             D
e|-------------|-------------|---------2---|---------2---|
B|---------2---|---------2---|-----3-----3-|-----3-----3-|
G|-----2-----2-|-----2-----2-|---2---2-----|---2---2-----|
D|---2---2-----|---2---2-----|-0-----------|-0-----------|
A|-0-----------|-0-----------|-------------|-------------|
E|-------------|-------------|-------------|-------------|
  Lavender's blue, dilly dilly, lavender's green

   A             A             E             A             A
e|-------------|-------------|-------------|-------------|-------------|
B|---------2---|---------2---|---------0---|---------2---|---------2---|
G|-----2-----2-|-----2-----2-|-----1-----1-|-----2-----2-|-----2-----2-|
D|---2---2-----|---2---2-----|---2---2-----|---2---2-----|---2---2-----|
A|-0-----------|-0-----------|-2-----------|-0-----------|-0-----------|
E|-------------|-------------|-------------|-------------|-------------|
  When I am King, dilly dilly, you shall be Queen.

   A             A             D             D
e|-------------|-------------|---------2---|---------2---|
B|---------2---|---------2---|-----3-----3-|-----3-----3-|
G|-----2-----2-|-----2-----2-|---2---2-----|---2---2-----|
D|---2---2-----|---2---2-----|-0-----------|-0-----------|
A|-0-----------|-0-----------|-------------|-------------|
E|-------------|-------------|-------------|-------------|
  Who told you so, dilly dilly, who told you so?

   A             A             E             A             A
e|-------------|-------------|-------------|-------------|-------------|
B|---------2---|---------2---|---------0---|---------2---|---------2---|
G|-----2-----2-|-----2-----2-|-----1-----1-|-----2-----2-|-----2-----2-|
D|---2---2-----|---2---2-----|---2---2-----|---2---2-----|---2---2-----|
A|-0-----------|-0-----------|-2-----------|-0-----------|-0-----------|
E|-------------|-------------|-------------|-------------|-------------|
  'Twas my own heart, dilly dilly, that told me so.


[Bridge]

   A             A            
e|-------------|-------------|
B|---------2---|---------2---|
G|-----2-----2-|-----2-----2-|
D|---2---2-----|---2---2-----|
A|-0-----------|-0-----------|
E|-------------|-------------|


[Verse]

   A             A             D             D
e|-------------|-------------|---------2---|---------2---|
B|---------2---|---------2---|-----3-----3-|-----3-----3-|
G|-----2-----2-|-----2-----2-|---2---2-----|---2---2-----|
D|---2---2-----|---2---2-----|-0-----------|-0-----------|
A|-0-----------|-0-----------|-------------|-------------|
E|-------------|-------------|-------------|-------------|
  Call up your men, dilly dilly, set them to work

   A             A             E             A             A
e|-------------|-------------|-------------|-------------|-------------|
B|---------2---|---------2---|---------0---|---------2---|---------2---|
G|-----2-----2-|-----2-----2-|-----1-----1-|-----2-----2-|-----2-----2-|
D|---2---2-----|---2---2-----|---2---2-----|---2---2-----|---2---2-----|
A|-0-----------|-0-----------|-2-----------|-0-----------|-0-----------|
E|-------------|-------------|-------------|-------------|-------------|
  Some to the plow, dilly dilly, some to the fork

   A             A             D             D
e|-------------|-------------|---------2---|---------2---|
B|---------2---|---------2---|-----3-----3-|-----3-----3-|
G|-----2-----2-|-----2-----2-|---2---2-----|---2---2-----|
D|---2---2-----|---2---2-----|-0-----------|-0-----------|
A|-0-----------|-0-----------|-------------|-------------|
E|-------------|-------------|-------------|-------------|
  Some to make hay, dilly dilly, some to cut corn

   A             A             E             A             A
e|-------------|-------------|-------------|-------------|-------------|
B|---------2---|---------2---|---------0---|---------2---|---------2---|
G|-----2-----2-|-----2-----2-|-----1-----1-|-----2-----2-|-----2-----2-|
D|---2---2-----|---2---2-----|---2---2-----|---2---2-----|---2---2-----|
A|-0-----------|-0-----------|-2-----------|-0-----------|-0-----------|
E|-------------|-------------|-------------|-------------|-------------|
  While you and I, dilly dilly, keep ourselves warm.


[Bridge]

   A             A            
e|-------------|-------------|
B|---------2---|---------2---|
G|-----2-----2-|-----2-----2-|
D|---2---2-----|---2---2-----|
A|-0-----------|-0-----------|
E|-------------|-------------|


[Verse]

   A             A             D             D
e|-------------|-------------|---------2---|---------2---|
B|---------2---|---------2---|-----3-----3-|-----3-----3-|
G|-----2-----2-|-----2-----2-|---2---2-----|---2---2-----|
D|---2---2-----|---2---2-----|-0-----------|-0-----------|
A|-0-----------|-0-----------|-------------|-------------|
E|-------------|-------------|-------------|-------------|
  Lavender's green, dilly dilly, lavender's blue

   A             A             E             A             A
e|-------------|-------------|-------------|-------------|-------------|
B|---------2---|---------2---|---------0---|---------2---|---------2---|
G|-----2-----2-|-----2-----2-|-----1-----1-|-----2-----2-|-----2-----2-|
D|---2---2-----|---2---2-----|---2---2-----|---2---2-----|---2---2-----|
A|-0-----------|-0-----------|-2-----------|-0-----------|-0-----------|
E|-------------|-------------|-------------|-------------|-------------|
  If you love me, dilly dilly, I will love you

   A             A             D             D
e|-------------|-------------|---------2---|---------2---|
B|---------2---|---------2---|-----3-----3-|-----3-----3-|
G|-----2-----2-|-----2-----2-|---2---2-----|---2---2-----|
D|---2---2-----|---2---2-----|-0-----------|-0-----------|
A|-0-----------|-0-----------|-------------|-------------|
E|-------------|-------------|-------------|-------------|
  Let the birds sing, dilly dilly, and the lambs play

   A             A             E             A             A
e|-------------|-------------|-------------|-------------|-------------|
B|---------2---|---------2---|---------0---|---------2---|---------2---|
G|-----2-----2-|-----2-----2-|-----1-----1-|-----2-----2-|-----2-----2-|
D|---2---2-----|---2---2-----|---2---2-----|---2---2-----|---2---2-----|
A|-0-----------|-0-----------|-2-----------|-0-----------|-0-----------|
E|-------------|-------------|-------------|-------------|-------------|
  We shall be safe, dilly dilly, out of harms way


[Bridge]

   A             A            
e|-------------|-------------|
B|---------2---|---------2---|
G|-----2-----2-|-----2-----2-|
D|---2---2-----|---2---2-----|
A|-0-----------|-0-----------|
E|-------------|-------------|


[Verse]

   A             A             D             D
e|-------------|-------------|---------2---|---------2---|
B|---------2---|---------2---|-----3-----3-|-----3-----3-|
G|-----2-----2-|-----2-----2-|---2---2-----|---2---2-----|
D|---2---2-----|---2---2-----|-0-----------|-0-----------|
A|-0-----------|-0-----------|-------------|-------------|
E|-------------|-------------|-------------|-------------|
  I love to dance, dilly dilly, I love to sing

   A             A             E             A             A
e|-------------|-------------|-------------|-------------|-------------|
B|---------2---|---------2---|---------0---|---------2---|---------2---|
G|-----2-----2-|-----2-----2-|-----1-----1-|-----2-----2-|-----2-----2-|
D|---2---2-----|---2---2-----|---2---2-----|---2---2-----|---2---2-----|
A|-0-----------|-0-----------|-2-----------|-0-----------|-0-----------|
E|-------------|-------------|-------------|-------------|-------------|
  When I am Queen, dilly dilly, you'll be my King

   A             A             D             D
e|-------------|-------------|---------2---|---------2---|
B|---------2---|---------2---|-----3-----3-|-----3-----3-|
G|-----2-----2-|-----2-----2-|---2---2-----|---2---2-----|
D|---2---2-----|---2---2-----|-0-----------|-0-----------|
A|-0-----------|-0-----------|-------------|-------------|
E|-------------|-------------|-------------|-------------|
  Who told me so, dilly dilly, who told me so?

   A             A             E             A             A
e|-------------|-------------|-------------|-------------|-------------|
B|---------2---|---------2---|---------0---|---------2---|---------2---|
G|-----2-----2-|-----2-----2-|-----1-----1-|-----2-----2-|-----2-----2-|
D|---2---2-----|---2---2-----|---2---2-----|---2---2-----|---2---2-----|
A|-0-----------|-0-----------|-2-----------|-0-----------|-0-----------|
E|-------------|-------------|-------------|-------------|-------------|
  I told myself, dilly dilly, I told me so.

            
            
Suggest correction
Creating personal tab
Creating personal tab
You can edit any tab online and save it as your Personal.

You can edit, replace or remove any tab part or add personal notes – all changes will be seen only by you.

Personal tabs can be accessed anytime from any device, even offline.
Learn more »
comments
print report bad tab
guest
You may want to rate the tab now too:
select rating
Wanna post a correction for this tab? Suggest correction