Oops, an error
Loading. Please wait.

Dumbo - Pink Elephants On Parade intro tab

version 2
version 2

Intro

Interactive

6,698 views 9 this week
1 commentread comment
1 2 3 4 5
x 6
add to favorites
×
Save as Personal and add changes to this tab that will be seen only by you. Learn more ›
×
You can save this tab as Personal to edit and correct it or add notes. All changes will be seen only by you. Learn more »
launch autoscroll
font size
0
reset
how to read this tab
guitar tuner
edit
Autoscroll
slow
fast
+/-
esc
set tempo
stop
Author
Difficulty
“Pink Elephants On Parade”
From Dumbo by Walt Disney Pictures

PART 1
Intro:
e|-12-12-12-8-8-8----8--------8----8--12--8----8--12----------|
B|----------------10---10-------10----------10----------------|
G|------------------------------------------------------------|
D|------------------------------------------------------------|
A|------------------------------------------------------------|
E|------------------------------------------------------------|

e|-------------------------|
B|-5-5-5-------------------|
G|-------5-5-5---5---------|
D|-------------7-----------|
A|------------------8-7----|
E|-------------------------|

PART 2
Rhythm:
e|-------------------------|
B|-------------------------|
G|-------------------------|
D|-2-2-2-2-2-2-2-2-2-2-2-2-|
A|-0-0-0-0-0-0-0-0-0-0-0-0-|
E|-------------------------|

Melody:
e|-------------------8-12-8-11--12-8-11--12-15-12-11----------|
B|----------------10---------------------------------13-10----|
G|-9h10-9h10—9h10---------------------------------------------|
D|------------------------------------------------------------|
A|------------------------------------------------------------|
E|------------------------------------------------------------|

e|-----------------12-11---------|
B|--------------10-------9-10----|
G|-9h10-9h10--10-----------------| play 2x
D|-------------------------------|
A|-------------------------------|
E|-------------------------------|

e|-12-13-10-12-------------------------|
B|--------------5-6-3-5----------------|
G|-------------------------------------|
D|----------------------2-3-0-2-3-0-2--|
A|-------------------------------------|
E|-------------------------------------|

PART 3
Rhythm:
e|------------------------------------|
B|------------------------------------|
G|------------------------------------|  play 2x
D|-2----------------2--------2---2----|
A|-0—5-3—2-3—5—3-5--0-5-3-2--0-3-0-3--|
E|---3—1—0—1—3—1—3----3-1-0----1---1--|

Melody:
e|----------------------------------------------------------8-12-11------|
B|-10h11p10—-10--10--10-10h11p10—-10--10—-10-10h11p10—-10-9---------9-10-|
G|-----------------------------------------------------------------------| play 2x
D|-----------------------------------------------------------------------|
A|-----------------------------------------------------------------------|
E|-----------------------------------------------------------------------|

Then it changes to this rhythm:
e|----------------------------------------------------------------|
B|----------------------------------------------------------------|
G|----------------------------------------------------------------|
D|-2---2---2---2---2---2---2--------------------------------------|
A|-0-3-0-3-0-3-0-3-0-3-0-3 3-0------------------------------------|
E|---1---1---1---1---1---1----------------------------------------|

With this melody:
e|----8--------8--------8--12-11----8--12-11------------------------|
B|-10---10--10---10--10----------10-------------1----1----5-5-4-1---|
G|--------------------------------------------2---2----2----------2-|
D|------------------------------------------------------------------|
A|------------------------------------------------------------------|
E|------------------------------------------------------------------|

Then go back to the top and play all the rhythm under the vocals:

Look out! Look out!
Pink elephants on parade
Here they come!
Hippety hoppety
They're here and there
Pink elephants ev'rywhere
Look out! Look out!
They're walking around the bed
On their head
Clippety cloppety
Arrayed in braid
Pink elephants on parade
What'll I do? What'll I do?
What an unusual view!
I could stand the sight of worms
And look at microscopic germs
But technicolor pachyderms
Is really too much for me
I am not the type to faint
When things are odd or things
are quaint
But seeing things you know that ain't
Can certainly give you an awful fright!
What a sight!
Chase 'em away!
Chase 'em away!
I'm afraid need your aid
Pink elephants on parade!
Pink elephants!
Pink elephants!

Play this to finish off the vocal part:
e|--------------------------------------------------|
B|--------------------------------------------------|
G|--------------------------------------------------|
D|--------------------------------------------------|
A|-7--5--3--2--7--5--3--2--7--5--3--2--7--5--3--2---|
E|-5--3--1--0--5--3--1--0--5--3--1--0--5--3--1--0---|

I’m gonna try and figure out the rest. I just don’t have time right now.

            
            
Suggest correction
Creating personal tab
Creating personal tab
You can edit any tab online and save it as your Personal.

You can edit, replace or remove any tab part or add personal notes – all changes will be seen only by you.

Personal tabs can be accessed anytime from any device, even offline.
Learn more »
comments
print report bad tab
1 comment total.
0 reply
Terid 10 Oct 19, 2010 06:23 PM

Thanks for the tab man. I love this tune its so groovy. Tab seems pretty spot on hope you finish the rest soon! :)

guest
You may want to rate the tab now too:
select rating
Wanna post a correction for this tab? Suggest correction