Oops, an error
Loading. Please wait.

Fullmetal Alchemist - Brothers tab

version 1
version 1

Whole song

Interactive

46,813 views 51 this week
5 commentsread comments
1 2 3 4 5
x 9
add to favorites
×
Save as Personal and add changes to this tab that will be seen only by you. Learn more ›
×
You can save this tab as Personal to edit and correct it or add notes. All changes will be seen only by you. Learn more »
launch autoscroll
font size
0
reset
how to read this tab
guitar tuner
edit
Autoscroll
slow
fast
+/-
esc
set tempo
stop
Author
Tabbed by: Bloody Dali
Tuning: Standard

e|--13--12--13--12--10---------------------------|
B|-------------------------13--10--------13--10--|
G|----------------------------------12-----------|
D|-----------------------------------------------|
A|-----------------------------------------------|
E|-----------------------------------------------|

e|----------------------------------------------|
B|-------------------8--10----------------------|
G|--7--10--9--10--------------10--9--7----------|
D|----------------------------------------------|
A|----------------------------------------------|
E|----------------------------------------------|

e|-------------------------8---------------|
B|--------------------8---------10--8--10--|
G|--7--10--9--10---------------------------|
D|-----------------------------------------|
A|-----------------------------------------|
E|-----------------------------------------|

e|-----------------------------------------------------------------------|
B|------------------8--10------------------------------------------------|
G|--7--10--9--10--------------10--9--7---7---------------7--9--10--9--7--|
D|---------------------------------------------10--10--------------------|
A|-----------------------------------------------------------------------|
E|-----------------------------------------------------------------------|

e|--------------------------8--------------------------------------------|
B|--10--8--10--8-------10--------8-----10--8--10--8----------------------|
G|-----------------7------------------------------------7--9--10--12--9--|
D|-----------------------------------------------------------------------|
A|-----------------------------------------------------------------------|
E|-----------------------------------------------------------------------|

e|---------------------------8----------------------------------|
B|--10--8--10--8-------10----------8------10--8--10--12--8--10--|
G|-----------------7--------------------------------------------|
D|--------------------------------------------------------------|
A|--------------------------------------------------------------|
E|--------------------------------------------------------------|

e|--------10---10--10--8-------------------10--12--10--8----------|
B|--10----------------------8--10---10---------------------8--10--|
G|----------------------------------------------------------------|
D|----------------------------------------------------------------|
A|----------------------------------------------------------------|
E|----------------------------------------------------------------|

e|---------------------------|
B|--10--8--10--8-------------|
G|-----------------10--9--7--|
D|---------------------------|
A|---------------------------|  x2
E|---------------------------|

e|--17--19--17--15--13--15--17--12--10--17--19--17--15--17--|
B|----------------------------------------------------------|
G|----------------------------------------------------------|
D|----------------------------------------------------------|
A|----------------------------------------------------------|
E|----------------------------------------------------------|

e|--25--24--22--24--20--17---20--22--25--24--25--27--24--22--|
B|-----------------------------------------------------------|
G|-----------------------------------------------------------|
D|-----------------------------------------------------------|
A|-----------------------------------------------------------|
E|-----------------------------------------------------------|

            
            
Suggest correction
Creating personal tab
Creating personal tab
You can edit any tab online and save it as your Personal.

You can edit, replace or remove any tab part or add personal notes – all changes will be seen only by you.

Personal tabs can be accessed anytime from any device, even offline.
Learn more »
comments
print report bad tab
5 comments total. Showing first comments.
+1 reply
CarthageForever 40 Jul 25, 2009 12:16 PM

A really beautiful song. Thanks for the tab.

+1 reply
Ambrosia Autumn 242 Dec 03, 2009 12:45 PM

Thanks. Too bad I only have 24 frets though. Oh well, I'll just have to bend those high notes.

+2 reply
JustinOther1 10 Sep 09, 2013 05:13 AM

I was doing just fine until my frets stopped at 22.

guest
You may want to rate the tab now too:
select rating
Wanna post a correction for this tab? Suggest correction