Oops, an error
Loading. Please wait.

Futurama Theme bass

version 2
version 2

Whole song

15,190 views 24 this week
4 commentsread comments
1 2 3 4 5
x 9
add to favorites
×
Save as Personal and add changes to this tab that will be seen only by you. Learn more ›
×
You can save this tab as Personal to edit and correct it or add notes. All changes will be seen only by you. Learn more »
launch autoscroll
font size
0
reset
guitar tuner
edit
Autoscroll
slow
fast
+/-
esc
set tempo
stop
Difficulty
Song:
FUTURAMA THEME SONG
Tabbed By:
SehestedtSM
Comments:
I pretty much changed Al Nennings guitar version for the bass.

G -------------------------------------------------|
D -----7-7--------------7-7------------------7-6---|
A -7-7-----5-5-7-7--7-7------5-5-10-10-9-7--7----5-|
E--------------------------------------------------|

G ---------------5--5-----------------12-12--------|
D -----------7-6----------------12-12--------10-10-|
A -5-9-7-7--7--------10-10-9-9---------------------|
E -------------------------------------------------|

G -10-10---------12-12---------10-10-9--------12-11-|
D --------12-12---------10-10-----------12-12-------|
A --------------------------------------------------|
E --------------------------------------------------|

G --------10-9---------12-11--14-14-10-10-9-9-----|
D -10-10--------12-12-----------------------------|
A ------------------------------------------------|
E ------------------------------------------------|

            
            
Suggest correction
Creating personal tab
Creating personal tab
You can edit any tab online and save it as your Personal.

You can edit, replace or remove any tab part or add personal notes – all changes will be seen only by you.

Personal tabs can be accessed anytime from any device, even offline.
Learn more »
comments
print report bad tab
4 comments total. Showing first comments.
0 reply
welby 253 Jun 16, 2008 12:02 PM

great tab man.
thanks :)

0 reply
SehestedtSM 91 Jul 30, 2009 10:23 PM

I dont know why my tab isnt on my profile contribution thingie but wtf iguess

0 reply
Baefulwrath 10 Sep 04, 2009 03:00 PM

Doesn't anyone have the REAL tab?
This simplified bell-version is boring.
I want the real bass tab,
Could someone please take a look at it and upload it here?

guest
Wanna post a correction for this tab? Suggest correction