Oops, an error
Loading. Please wait.

Gravity Falls Theme ukulele

version 1
version 1

Whole song

Interactive

66,251 views 348 this week
7 commentsread comments
1 2 3 4 5
x 74
add to favorites
×
Save as Personal and add changes to this tab that will be seen only by you. Learn more ›
×
You can save this tab as Personal to edit and correct it or add notes. All changes will be seen only by you. Learn more »
launch autoscroll
font size
0
reset
transpose
0
reset
simplify chords
display chords
guitar tuner
edit
Autoscroll
slow
fast
+/-
esc
set tempo
stop
Author
Difficulty
Strumming
There is no strumming pattern for this song yet. and get +5 IQ
This is the Theme Song from the Disney TV Show "Gravity Falls". It can be played Solo or 
as a Duet.
Either Uke 1 or Uke 2 can play the Intro or Outro, but one strums while the other 
fingerpicks the Melody.

[Intro]

     Dm                      F
A|--0----------0-----------0---------0---------|
E|----1-----1-----1-----1-----1----1---1----1--|
C|-------2-----------2-----------0--------0----|
G|---------------------------------------------|

   Bb                   A7
A|--1---------1---------0---------0----------|
E|-----1----1---1---1-----0----0----0----0---|
C|--------2-------2---------1----------1-----|
G|-------------------------------------------|


[Strum] (Uke 1)

Dm  Dm  F  F
Bb  Bb  C  Am
Dm  Dm  F  F
Bb  Bb  C  Am
Dm  Dm
Bb  C  Am


[Melody] (Uke 2)
Higher/Whistling

A|-5--7-8--12-10-12-----5--7-8--10-12-10-8--8-8-8-12-12-10-8--12-12-12-10-12-10-8--|
E|---------------------------------------------------------------------------------|
C|---------------------------------------------------------------------------------|
G|------------------5--------------------------------------------------------------|

A|8-8-8-12-12-10-8--12-12-12-15-15-15--8-8-8-12-12-10-8--13-13-12-10-15-12-16-17---|
E|---------------------------------------------------------------------------------|
C|---------------------------------------------------------------------------------|
G|---------------------------------------------------------------------------------|

or
Lower

A|---------------------------------------------------------------------------------|
E|---------5-3-5-------------3--5--3--1----1-1-1-5-5-3-1----5-5-5-3-5-3-1----------|
C|-2--4-5--------0----2--4-5-------------------------------------------------------|
G|---------------------------------------------------------------------------------|

A|---------------------------------------------------------------------------------|
E|-1-1-1-5-5-3-1----5-5-5--8-8-8----1-1-1-5-5-3-1----6-6-5-3-8-5-9-10--------------|
C|---------------------------------------------------------------------------------|
G|---------------------------------------------------------------------------------|


[Outro]

      Dm          A7
A|--0----------0-------------------|
E|----1-----1-----0----0------9s10-|
C|-------2-----------1----2--------|
G|---------------------------------|

or


      Dm          A7
A|--0----------0----------------5--|
E|----1-----1-----0----0--------5--|
C|-------2-----------1----2-----5--|
G|---------------------------------|

                  Bar the fifth fret and strum or pick instead of sliding 9/10 on the E string

************************************

| s Slide

************************************

            
            
Suggest correction
Creating personal tab
Creating personal tab
You can edit any tab online and save it as your Personal.

You can edit, replace or remove any tab part or add personal notes – all changes will be seen only by you.

Personal tabs can be accessed anytime from any device, even offline.
Learn more »
comments
print report bad tab
7 comments total. Showing first comments.
+3 reply
eakmhss 10 Feb 16, 2016 08:42 AM

Which ukulele is used? Concert, tenor or baritone? There's only 12 frets on my soprano uke.

+2 reply
LightningLucas 161 Jul 07, 2016 05:49 PM

I had this same problem. I have a soprano and decided to start this, when all of a sudden I got to the main picking part and I was like, "oh snap." Luckily, I now have a tenor :P

+2 reply
EricTheCleric 48 Apr 15, 2016 09:41 PM

Hi, sorry. I have a Tenor and a Soprano. My Soprano also only goes up to twelve, so you can only do the intro, strum and outro parts. I can only play the picking on my Tenor.

guest
You may want to rate the tab now too:
select rating
Wanna post a correction for this tab? Suggest correction