Oops, an error
Loading. Please wait.

K-On - Dont Say Lazy bass

version 1
version 1

Whole song

Interactive

33,131 views 9 this week
no commentswrite comment
1 2 3 4 5
x 7
add to favorites
×
Save as Personal and add changes to this tab that will be seen only by you. Learn more ›
×
You can save this tab as Personal to edit and correct it or add notes. All changes will be seen only by you. Learn more »
launch autoscroll
font size
0
reset
guitar tuner
edit
Autoscroll
slow
fast
+/-
esc
set tempo
stop
Author
Difficulty
Unregistered
intermediate
[Chorus]
G|--------|--------|--------|--------|--------------|
D|--------|--------|--------|--------|--------------|
A|--------|--3(x8)-|--5(x8)-|--2(x8)-|--7(x4)-5(x4)-|
E|--------|--------|--------|--------|--------------|

G|--------|--------|--------------|--------|
D|--------|--------|--------------|--------|
A|--3(x8)-|--5(x8)/|--------------|--------|
E|--------|--------|--0(x2)-0(x2)-|--0(x5)-|

G|--------|--------|--------|--------------|
D|--------|--------|--------|--------------|
A|--3(x8)-|--5(x8)-|--2(x8)-|--7(x4)-5(x4)-|
E|--------|--------|--------|--------------|

G|--------|--------|--------------|------------|
D|--------|--------|--------------|------------|
A|--0(x8)-|--2(x8)-|--------------|------------|
E|--------|--------|--0(x2)-0(x2)-|--0(x4)-10\-|

G|--------------|-------------|  
D|--------------|-------------|  (x4)
A|--------------|-------------|    
E|--0(x2)-0-0-0-|-0-0-0(x2)-1-|  

[Verse 1]
G|--------------|--------|--------------|--------|
D|--------------|--------|--------------|--------|
A|--------------|--------|--------------|--------|
E|--0(x2)-0(x2)-|--0(x2)-|--0(x2)-0(x2)-|--0(x4)-|
 
G|--------------|-------------|--------------|-------------|
D|--------------|-------------|--------------|-------------|
A|--------------|-------------|--------------|-------------|
E|--0(x2)-0-0-0-|-0-0-0(x2)-1-|--0(x2)-0-0-0-|-0-0-0(x2)-1-|

G|--------------|--------|--------------|--------|
D|--------------|--------|--------------|--------|
A|--------------|--------|--------------|--------|
E|--0(x2)-0(x2)-|--0(x2)-|--0(x2)-0(x2)-|--0(x4)-|
 
G|--------------|-------------|--------------|-------------|
D|--------------|-------------|--------------|-------------|
A|--------------|-------------|--------------|-------------|
E|--0(x2)-0-0-0-|-0-0-0(x2)-1-|--0(x2)-0-0-0-|-0-0-0(x2)-1-|

[Pre-Chorus]
G|--------|--------|--------|--------------|
D|--------|--------|--------|--------------|
A|--3(x8)-|--5(x8)-|--2(x8)-|--7(x4)-5(x4)-|
E|--------|--------|--------|--------------|

G|--12(x8)-|--14(x8)-|--------|--------------|
D|--10(x8)-|--12(x8)-|--------|--------------|
A|---------|---------|--7(x8)-|--7(x4)-5(x4)-|
E|---------|---------|--------|--------------|

G|--------|--------|--------|--------------|
D|--------|--------|--------|--------------|
A|--3(x8)-|--5(x8)-|--2(x8)-|--7(x4)-5(x4)-|
E|--------|--------|--------|--------------|

G|--------|--------|--------|-----------|
D|--------|--------|--------|-----------|
A|--0(x8)-|--1(x8)-|--2(x7)/|--/14(x7)\-|
E|--------|--------|--------|-----------|

[Chorus]
G|--------|--------|--------|--------------|
D|--------|--------|--------|--------------|
A|--3(x8)-|--5(x8)-|--2(x8)-|--7(x4)-5(x4)-|
E|--------|--------|--------|--------------|

G|--------|---------|--------------|-----------|
D|--------|---------|--------------|-----------|
A|--3(x8)-|--5(x8)/-|--------------|-----------|
E|--------|---------|--0(x2)-0(x2)-|--0(x3)-8\-|

G|--------|--------|--------|--------------|
D|--------|--------|--------|--------------|
A|--3(x8)-|--5(x8)-|--2(x8)-|--7(x4)-5(x4)-|
E|--------|--------|--------|--------------|

G|--------|--------|--------------|------------|
D|--------|--------|--------------|------------|
A|--0(x8)-|--2(x8)-|--------------|------------|
E|--------|--------|--0(x2)-0(x2)-|--0(x4)-12\-|

G|--------------|-------------|  
D|--------------|-------------|   (x4)
A|--------------|-------------|    
E|--0(x2)-0-0-0-|-0-0-0(x2)-1-|  

[Verse 2]
G|--------------|--------|--------------|--------|   
D|--------------|--------|--------------|--------|
A|--------------|--------|--------------|--------|
E|--0(x2)-0(x2)-|--0(x2)-|--0(x2)-0(x2)-|--0(x4)-|

G|--------------|-------------|   
D|--------------|-------------|   (x2)
A|--------------|-------------|   
E|--0(x2)-0-0-0-|-0-0-0(x2)-1-|  

G|--------------|--------|--------------|------------|
D|--------------|--------|--------------|------------|
A|--------------|--------|--------------|------------|
E|--0(x2)-0(x2)-|--0(x2)-|--0(x2)-0(x2)-|--0(x2)-10\-|
 
G|--------------|-------------|  
D|--------------|-------------|     
A|--------------|-------------|    (x2)
E|--0(x2)-0-0-0-|-0-0-0(x2)-1-|   

[Pre-Chorus]
G|--------|--------|--------|--------------|
D|--------|--------|--------|--------------|
A|--3(x8)-|--5(x8)-|--2(x8)-|--7(x4)-5(x4)-|
E|--------|--------|--------|--------------|

G|--12(x8)-|--14(x8)-|--------|----------|
D|--10(x8)-|--12(x8)-|--------|----------|
A|---------|---------|--7(x8)-|--7-7-5-5-|
E|---------|---------|--------|---7-7-7--|

G|--------|--------|--------|--------------|
D|--------|--------|--------|--------------|
A|--3(x8)-|--5(x8)-|--2(x8)-|--7(x4)-5(x4)-|
E|--------|--------|--------|--------------|

G|--------|--------|--------|----------------|
D|--------|--------|--------|----------------|
A|--0(x8)-|--1(x8)-|--2(x7)/|--/14(x5)-12----|
E|--------|--------|--------|------------14\-|

[Chorus]
G|--------|--------|--------|--------------|
D|--------|--------|--------|--------------|
A|--3(x8)-|--5(x8)-|--2(x8)-|--7(x4)-5(x4)-|
E|--------|--------|--------|--------------|

G|--------|---------|--------------|------------|
D|--------|---------|--------------|------------|
A|--3(x8)-|--5(x8)/-|--------------|------------|
E|--------|---------|--0(x2)-0(x2)-|--0(x3)-12\-|

G|--------|--------|--------|--------------|
D|--------|--------|--------|--------------|
A|--3(x8)-|--5(x8)-|--2(x8)-|--7(x4)-5(x4)-|
E|--------|--------|--------|--------------|

G|--------|--------|--------------|------------|
D|--------|--------|--------------|------------|
A|--0(x8)-|--2(x8)-|--------------|------------|
E|--------|--------|--0(x2)-0(x2)-|--0(x4)-12\-|

G|--------------|--------------|  
D|--------------|--------------|  
A|--------------|--------------|   (x4)
E|--0(x2)-0-0-0-|--0-0-0(x2)-1-| 

[Bridge]
G|-----------|--------|
D|-----------|--------|
A|-----------|--------|
E|--0--------|--------|

G|----------|------------------| 
D|-------9/-|--14—-12----------| 
A|----------|----14—-12—14-----|  (x3)
E|--0-------|---------------12-| 

G|----------|------------------| 
D|-------9/-|--14—-12----------|    
A|----------|----14—-12—14-----|  (x7)
E|--0(x7)---|---------------12-| 

G|--------|--------|
D|--------|--------|
A|--------|--------|
E|--0(x8)-|--0-----|

[Pre-Chorus]
G|--------|--------|--------|--------------|
D|--------|--------|--------|--------------|
A|--3(x8)-|--5(x8)-|--2(x8)-|--7(x4)-5(x4)-|
E|--------|--------|--------|--------------|

G|--12(x8)-|--14(x8)-|--------|--------------|
D|--10(x8)-|--12(x8)-|--------|--------------|
A|---------|---------|--7(x8)-|--7(x4)-5(x4)-|
E|---------|---------|--------|--------------|

G|--------|--------|--------|--------------|
D|--------|--------|--------|--------------|
A|--3(x8)-|--5(x8)-|--2(x8)-|--7(x4)-5(x4)-|
E|--------|--------|--------|--------------|

G|--------|--------|--------|-----------|
D|--------|--------|--------|-----------|
A|--0(x8)-|--1(x8)-|--2(x7)/|--/14(x7)\-|
E|--------|--------|--------|-----------|

G|--16-14-----|
D|-------16---|
A|---------14-|
E|------------|

[Chorus]
G|--------|--------|--------|--------------|
D|--------|--------|--------|--------------|
A|--3(x8)-|--5(x8)-|--2(x8)-|--7(x4)-5(x4)-|
E|--------|--------|--------|--------------|

G|--------|---------|--------------|------------|
D|--------|---------|--------------|------------|
A|--3(x8)-|--5(x8)/-|--------------|------------|
E|--------|---------|--0(x2)-0(x2)-|--0(x3)-12\-|

G|--------|--------|--------|--------------|
D|--------|--------|--------|--------------|
A|--3(x8)-|--5(x8)-|--2(x8)-|--7(x4)-5(x4)-|
E|--------|--------|--------|--------------|

G|--------|--------|--------------|------------|
D|--------|--------|--------------|------------|
A|--0(x8)-|--2(x8)-|--------------|------------|
E|--------|--------|--0(x2)-0(x2)-|--0(x4)-12\-|

[Outro]
G|--------------|--------------|  
D|--------------|--------------|    
A|--------------|--------------|   (x2)
E|--0(x2)-0-0-0-|--0-0-0(x2)-1-|  

G|--------------|--------------|
D|--------------|--------------|
A|--------------|--------------|
E|--0(x2)-0-0-0-|--0-0-12-0-13~|

G|--------------|--------------|
D|--------------|--------------|
A|--------------|--------------|
E|--0(x2)-0-0-0-|--0-0-0(x2)-1-|



************************************

| \  Slide down
| /  Slide up
| ~  Vibrato

************************************

            
            
Suggest correction
Creating personal tab
Creating personal tab
You can edit any tab online and save it as your Personal.

You can edit, replace or remove any tab part or add personal notes – all changes will be seen only by you.

Personal tabs can be accessed anytime from any device, even offline.
Learn more »
comments
print report bad tab
guest
Wanna post a correction for this tab? Suggest correction