Oops, an error
Loading. Please wait.

Naruto Shippuden - Shirohae tab

135,859 views 192 this week
4 commentsread comments
1 2 3 4 5
x 33
add to favorites
×
Save as Personal and add changes to this tab that will be seen only by you. Learn more ›
×
You can save this tab as Personal to edit and correct it or add notes. All changes will be seen only by you. Learn more »
launch autoscroll
font size
0
reset
how to read this tab
guitar tuner
edit
Autoscroll
slow
fast
+/-
esc
set tempo
stop
Here it is people, thanks to "modnok69" for providing the tabs. I just put them up on 
here because nobody else did.
It's a beautiful song, so do it justice...

STANDARD TUNING

e|-----------------|-----------------|---------------------|-----------------|
B|--------3---1----|--------0---1----|---------1-3-----3/5-|---------1-------|
G|----2---2---2----|----2---2---2----|-0h2---2-------2-----|-2---2-----2---2-|
D|------2---2------|------2---2------|-----2-------2-------|-3-3---3-----3---|
A|----0------------|----0------------|-0-------------------|-3---------------|
E|-----------------|-----------------|---------------------|-----------------|

e|-----------------|-1h3-0-----------|---------------------|-----------------------|
B|---------1-3-----|-----1-------1---|-5-8-8/10------------|-8-5-3/5---------------|
G|-0h2---2-------2-|---------0-----0-|----------0---0----0-|---------0---0-5-0---0-|
D|-----0-------0---|-------2---2-----|----------------10---|-----------------------|
A|-----------------|-----3-----------|-----8------8--------|-----3-----3-------3---|
E|-3---------------|-----------------|---------------------|-----------------------|

e|---------0---------|-----------------|-----------------|
B|-0h3-------1-----0-|---------1-------|---------1-------|
G|-----0-------0-----|-2---2-----2---2-|-----2-----------|
D|-------0-------0---|---3---3-----3---|---3---3---------|
A|-------------------|-3---------------|-3---------------|
E|-3---------1-------|-----------------|-----------------|

e|-----------8-------|-7---5---3-------|-5---7---8-------|-0---1---3---------|
B|-3h5---------------|-----------------|-----------------|-----1---1---------|
G|-------0-------0---|---0---0-----0---|---0---0-----0---|---0---0-------0---|
D|-----0---0---0---0-|-----------0---0-|-3---------0---0-|-------------2---2-|
A|-------------------|-----------------|---------8-------|-3-----------------|
E|-5---------5-------|-3-------3-------|-----------------|-------------------|

e|---------3h5-------|-8---7---5-------|-7-------3-------|-3h5--------8---7---|
B|-3-----------------|-----------------|-----------------|--------------------|
G|-----0---------0---|---0---0-----0---|-----0-------0---|-------0----0-0---0-|
D|-3-3---3-3---3---3-|-----------0---0-|---0---0---0---0-|-3---3---3----------|
A|-------------------|-----------------|-----------------|--------------------|
E|-------------------|-5-------5-------|-3-------3-------|--------------------|

e|-----------8-------|-7---5---3-------|-5---7---8-------|-----0---1---3---------|
B|-3h5---------------|-----------------|-----------------|-----1---1---1---------|
G|-------0-------0---|---0---0-----0---|---0---0-----0---|-------0---0-------0---|
D|-----0---0---0---0-|-----------0---0-|-3---------0-----|-----------------2---2-|
A|-------------------|-----------------|---------8-------|-0-2-3-----------------|
E|-5---------5-------|-3-------3-------|-----------------|-----------------------|

e|---------3h5-------|-8---7---5-------|-7-------3-------|-3h5--------8---7---5h7---|
B|-3-----------------|-----------------|-----------------|--------------------------|
G|-----0---------0---|---0---0-----0---|-----0-------0---|-------0----0-0---0-------|
D|-3-3---3-3---3---3-|-----------0---0-|---0---0---0---0-|-3---3---3--------------0-|
A|-------------------|-----------------|-----------------|--------------------------|
E|-------------------|-5-------5-------|-3-------3-------|--------------------5-----|

e|-------|-----------------|---------------------|-----------------|
B|-3---1-|--------0---1----|---------1-3-----3/5-|-----------------|
G|-2---2-|----2---2---2----|-0h2-----------------|-2---------------|
D|-------|------2---2------|---------------------|-3---------------|
A|---0---|----0------------|-0-------------------|-3---------------|
E|-------|-----------------|---------------------|-----------------|

e|-----------------|-1h3-0---------------|--------------------|---------------------------|
B|---------1-3-----|-----1-------0h1-0---|-5-8-8h10-----------|-8/5-5/3-3h5---------------|
G|-0h2-----------2-|---------0---------0-|----------0---0---0-|-------------0---0-5-0---0-|
D|-------------0---|-------2---2---------|---------------10---|---------------------------|
A|-----------------|-----3---------------|-----8------8-------|---------3-----3-------3---|
E|-3---------------|---------------------|--------------------|---------------------------|

e|---------0---------|-----------------|-5---------------|-----------------0-|
B|-0h3-------1-----0-|---------1-------|---------1-------|---------1-------0-|
G|-----0-------0-----|-2---2-----2---2-|-----2-----2---2-|-2---2-------2---2-|
D|-------0-------0---|---3---3-----3---|---3---3-----3---|---2---2---2---2-2-|
A|-------------------|-3---------------|-----------------|-0---------------0-|
E|-3---------1-------|-----------------|-----------------|-----------------0-|



************************************

| h  Hammer-on
| /  Slide up

************************************

            
            
Suggest correction
Creating personal tab
Creating personal tab
You can edit any tab online and save it as your Personal.

You can edit, replace or remove any tab part or add personal notes – all changes will be seen only by you.

Personal tabs can be accessed anytime from any device, even offline.
Learn more »
comments
print report bad tab
4 comments total. Showing first comments.
0 reply
ScaryThumb 10 Dec 06, 2011 11:21 PM

This is one of my favorites.
The tab is nice, but not 100% accurate.

0 reply
artur3004 91 Nov 19, 2014 12:55 PM

didn't like this contribution

+1 reply
er.ankitgrg 10 Jan 17, 2015 05:47 AM

the first 5/1 slide is wrong. its 3/5

guest
You may want to rate the tab now too:
select rating
Wanna post a correction for this tab? Suggest correction