Oops, an error
Loading. Please wait.

Over The Garden Wall - Langtrees Lament bass

124 views 6 this week
no commentswrite comment
1 2 3 4 5
3 more votes to show rating
add to favorites
×
Save as Personal and add changes to this tab that will be seen only by you. Learn more ›
×
You can save this tab as Personal to edit and correct it or add notes. All changes will be seen only by you. Learn more »
launch autoscroll
font size
0
reset
guitar tuner
edit
Autoscroll
slow
fast
+/-
esc
set tempo
stop
Author
Difficulty
About this tab version
Bass guitar tab for langtree's lament from Over The Garden Wall with timestamps. Was this info helpful? Yes No
Langtree's Lament from Over The Garden Wall

Tabbed by sputnikfive

00.00-00.14

G|---------------------------------------------------------------------------|
D|---------------------------------------------------------------------------|
A|----0--1--3-------1-------3-------1---1------------------------------------|
E|-3------------1-------3-------1--------------------------------------------|

G|---------------------------------------------------------------------------|
D|---------------------------------------------------------------------------|
A|-3-------1-------3-------1---1---------------------------------------------|
E|-----1-------3-------1-----------------------------------------------------|


00.15-00.29

G|---------------------------------------------------------------------------|
D|---------------0-1-------1-------------------------------------------------|
A|-1-------1---3------1--------1---3-------3---------------------------------|
E|-----1--------------------------------3-------3----------------------------|

G|---------------------------------------------------------------------------|
D|----0-1-2-3----------------------------------------------------------------|
A|-3-------------------------------------------------------------------------|
E|-------------1~------------------------------------------------------------|

00.30-00.57

G|---------------------------------------------------------------------------|
D|------------------------------0--------------------------------------------|
A|-3-------1-------3-------1--1----3-------1-------3-------1-----------------|
E|-----1-------3-------1---------------1-------3-------1-------1-------------|

G|---------------------------------------------------------------------------|
D|------------0-1-----1--------------------3~--------------------------------|
A|-1--1--1--3------1-----1--3-----3-----3~-----------------------------------|
E|-----------------------------3-----3--------1------------------------------|


00.58-1.25

G|----------------------------------------------|
D|----------------------------------------------|
A|-3-------1-------3-------1---1----------------|
E|-----1-------3-------1------------------------| x2

G|---------------------------------------------------------------------------|
D|--------------0-1-----1--1-0---------------------0-1-2-3~------------------|
A|-1--1--1-1--3------1---------4--3-------3------3---------------------------|
E|-------------------------------------3-------3-------------1~--------------|

01.26-1.53

G|---------------------------------------------------------------------------|
D|---------------------------------------------------------------------------|
A|-3-------1-------3-------1--1-1-2-3------1-------3-------1-----------------|
E|-----1-------3-------1---------------1-------3-------1-------1-------------|

G|---------------------------------------------------------------------------|
D|-------------0-1-----1-1-0-------------------------------------------------|
A|-1--1--1-1-3------1--------1--3-------3-------3~---------------------------|
E|----------------------------------3-------3--------1~----1-----------------|

01.54-2.29

G|---------------------------------------------------------------------------|
D|---------------------------------------------------------------------------|
A|-3-------1-------3-------1--1-2-3-------1-------3-------1------------------|
E|-----1-------3-------1--------------1-------3-------1-------1--------------|

G|---------------------------------------------------------------------------|
D|---------------0-1-------1--1-0----------------------0-1-2-3---------------|
A|-1-------1-1-3-------1----------4--3-------3-------3---------------1-------|
E|-----1---------------------------------3-------3---------------1-----------|


might want to play it a bit palm muted if you want it to sound exactly how it is in the song, im fairly
certain they use a double bass or a similar instrument in it, rather than a bass guitar.

            
            
Suggest correction
Creating personal tab
Creating personal tab
You can edit any tab online and save it as your Personal.

You can edit, replace or remove any tab part or add personal notes – all changes will be seen only by you.

Personal tabs can be accessed anytime from any device, even offline.
Learn more »
Give kudos to tab author, rate the tab!
1 2 3 4 5
comments
print report bad tab
guest
You may want to rate the tab now too:
select rating
Wanna post a correction for this tab? Suggest correction