Oops, an error
Loading. Please wait.

Pink Panther Theme bass

version 1
version 1

Whole song

31,825 views 48 this week
8 commentsread comments
1 2 3 4 5
x 14
add to favorites
×
Save as Personal and add changes to this tab that will be seen only by you. Learn more ›
×
You can save this tab as Personal to edit and correct it or add notes. All changes will be seen only by you. Learn more »
launch autoscroll
font size
0
reset
guitar tuner
edit
Autoscroll
slow
fast
+/-
esc
set tempo
stop
Hey, this is Joel Burkett, I just tabbed the bridge to one of your files,
the bass tabs for "The Pink Panther". I used Mike Sabet's tabs, plus my own
at the end to make this tab file. The original looks like this:

Song Title: Pink Panther Theme
Artist: Miscellaneous
----------------------------------------------


G|----------------------------------------|
D|-------------------3-2-----3-1----------|
A|------2-3------2-3-----2-3--------3\2---|
E|-4-5-------4-5-----------------------5--|

Submitted by:  Mike Sabet (msabet@vt.edu)

my revision looks like this
G|------------------------------------------|
D|*-------------------3-2-----3-1----------*|
A|*------2-3------2-3-----2-3--------3\2---*|
E|--4-5-------4-5-----------------------5---|

G|------------------------------------------|
D|------------------------------------------|
A|---9\8---5\4---3\2--3-2--3-2--3-2--3\2----|
E|--------------------------------------5---|

            
            
Suggest correction
Creating personal tab
Creating personal tab
You can edit any tab online and save it as your Personal.

You can edit, replace or remove any tab part or add personal notes – all changes will be seen only by you.

Personal tabs can be accessed anytime from any device, even offline.
Learn more »
comments
print report bad tab
8 comments total. Showing first comments.
0 reply
divit 10 Feb 22, 2002 07:00 PM

hey can anybody please tab the whole song correctly I would do it but im too lazy :-)laterz

0 reply
divit 10 Feb 22, 2002 07:00 PM

im not sayin this is wrong cus its not im just asking if anybosy has the whole song

0 reply
divit 10 Feb 22, 2002 07:00 PM

anybody*

guest
Wanna post a correction for this tab? Suggest correction