Oops, an error
Loading. Please wait.

Pokemon Theme tab

version 3
version 3

Whole song

17,465 views 12 this week
1 commentread comment
1 2 3 4 5
2 more votes to show rating
add to favorites
×
Save as Personal and add changes to this tab that will be seen only by you. Learn more ›
×
You can save this tab as Personal to edit and correct it or add notes. All changes will be seen only by you. Learn more »
launch autoscroll
font size
0
reset
how to read this tab
guitar tuner
edit
Autoscroll
slow
fast
+/-
esc
set tempo
stop
Author
Gtr I (E A D G B E) -
Gtr II (E A D G B E) -

  Q=134
4/4
  Gtr I
   E  E  E  E  E  E  E  E    E  E  +Q      +H
|-22----22--0--0--0--0--0-|-24-21-(21)----(21)----------|
|-------------------------|-----------------------------|
|-------------------------|-----------------------------|
|-------------------------|-----------------------------|
|-------------------------|-----------------------------|
|-------------------------|-----------------------------|
|
| Gtr II
|  E  E  E  E  E  E  E  E    E  E   E   E   E   E  E  E
|-10-17----17----17----17-|----17--15--17------17-15-17-|
|-------19----15----19----|-17-------------17-----------|
|-------------------------|-----------------------------|
|-------------------------|-----------------------------|
|-------------------------|-----------------------------|
|-------------------------|-----------------------------|

   E  E  E  E  E  E  +E   E    E  E  Q     H
|-21----21--0--0-24-(24)-21-|-22--0--0-----0-----------|
|---------------------------|--------------------------|
|---------------------------|--------------------------|
|---------------------------|--------------------------|
|---------------------------|--------------------------|
|---------------------------|--------------------------|
|
|  E  E  E  E  E  E   E   E    E  E  E  E  E  E  E  E
|----17-15-17----17--15--17-|----17-19-21-22-21-19-17--|
|-17----------17------------|-15-----------------------|
|---------------------------|--------------------------|
|---------------------------|--------------------------|
|---------------------------|--------------------------|
|---------------------------|--------------------------|

   E  E  E  E  E  E  E  E    E  E  +Q      +H
|-22----22--0--0--0--0--0-|-24-21-(21)----(21)----------|
|-------------------------|-----------------------------|
|-------------------------|-----------------------------|
|-------------------------|-----------------------------|
|-------------------------|-----------------------------|
|-------------------------|-----------------------------|
|
|  E  E  E  E  E  E  E  E    E  E   E   E   E   E  E  E
|----17----17----17----17-|----17--15--17------17-15-17-|
|-15----19----15----19----|-17-------------17-----------|
|-------------------------|-----------------------------|
|-------------------------|-----------------------------|
|-------------------------|-----------------------------|
|-------------------------|-----------------------------|

   E  E  E  E  E  E  +E   E    H.                 Q
|-21----21--0--0-24-(24)-21-|-22-----------------------|
|---------------------------|--------------------------|
|---------------------------|--------------------------|
|---------------------------|--------------------------|
|---------------------------|--------------------------|
|---------------------------|--------------------------|
|
|  E  E  E  E  E  E   E   E    E   E  E  E  E  E  E  E
|----17-15-17----17--15--17-|-----17----17----17----17-|
|-17----------17------------|-15-----19----15----19----|
|---------------------------|--------------------------|
|---------------------------|--------------------------|
|---------------------------|--------------------------|
|---------------------------|--------------------------|

   H           H             E  E  E  E  H
|--0-----------0----------|--0--0--0--0-24----------|
|-------------------------|-------------------------|
|-------------------------|-------------------------|
|-------------------------|-------------------------|
|-------------------------|-------------------------|
|-------------------------|-------------------------|
|
|  E  E  E  E  E  E  E  E    E  E  E  E  E  E  E  E
|----17----17----17----17-|----19----19----19----19-|
|-15----19----15----19----|-15----20----------20----|
|-------------------------|-------------19----------|
|-------------------------|-------------------------|
|-------------------------|-------------------------|
|-------------------------|-------------------------|

   H           H             E  E  E  E  H
|-21----------24----------|--0--0--0-24-22----------|
|-------------------------|-------------------------|
|-------------------------|-------------------------|
|-------------------------|-------------------------|
|-------------------------|-------------------------|
|-------------------------|-------------------------|
|
|  E  E  E  E  E  E  E  E    E  E  E  E  E  E  E  E
|----17-15-17----17-15-17-|----17----17----17-16-17-|
|-17----------------------|-15----19----19----------|
|-------------18----------|-------------------------|
|-------------------------|-------------------------|
|-------------------------|-------------------------|
|-------------------------|-------------------------|

   H           H             E  E  E  E  H
|--0-----------0----------|--0--0--0--0--0----------|
|-------------------------|-------------------------|
|-------------------------|-------------------------|
|-------------------------|-------------------------|
|-------------------------|-------------------------|
|-------------------------|-------------------------|
|
|  E  E  E  E  E  E  E  E    E  E  E  E  E  E  E  E
|----17----17----17----17-|-15-24----24----24----24-|
|-15----19----15----19----|-------24----------24----|
|-------------------------|-------------24----------|
|-------------------------|-------------------------|
|-------------------------|-------------------------|
|-------------------------|-------------------------|

   Q     E  E  H             E  E  E  E  H
|--0-----0--0--0----------|--0--0--0-24-22----------|
|-------------------------|-------------------------|
|-------------------------|-------------------------|
|-------------------------|-------------------------|
|-------------------------|-------------------------|
|-------------------------|-------------------------|
|
|  E  E  E  E  E  E  E  E    E  E  E  E  E  E  E  E
|-------------------------|-------------------------|
|----22-20-22----22-20-22-|----22----22-------19-20-|
|-21----------21----------|-------23-------21-------|
|-------------------------|-24----------24----------|
|-------------------------|-------------------------|
|-------------------------|-------------------------|

   E  E  E  E  E  E  E  E    E  E  +Q      +H
|-22----22--0--0--0--0--0-|-24-21-(21)----(21)----------|
|-------------------------|-----------------------------|
|-------------------------|-----------------------------|
|-------------------------|-----------------------------|
|-------------------------|-----------------------------|
|-------------------------|-----------------------------|
|
|  E  E  E  E  E  E  E  E    E  E   E   E   E   E  E  E
|----17----17----17----17-|----17--15--17------17-15-17-|
|-------19----15----19----|-17-------------17-----------|
|-19----------------------|-----------------------------|
|-------------------------|-----------------------------|
|-------------------------|-----------------------------|
|-------------------------|-----------------------------|

   E  E  E  E  E  E  +E   E    E  E  Q     H
|-21----21--0--0-24-(24)-21-|-22--0--0-----0----------|
|---------------------------|-------------------------|
|---------------------------|-------------------------|
|---------------------------|-------------------------|
|---------------------------|-------------------------|
|---------------------------|-------------------------|
|
|  E  E  E  E  E  E   E   E    E  E  E  E  E  E  E  E
|----17-15-17----17--15--17-|----17-19-21-22-21-19-17-|
|-17----------17------------|-15----------------------|
|---------------------------|-------------------------|
|---------------------------|-------------------------|
|---------------------------|-------------------------|
|---------------------------|-------------------------|

   E  E  E  E  E  E  E  E    E  E  +Q      +H
|-22----22--0--0--0--0--0-|-24-21-(21)----(21)----------|
|-------------------------|-----------------------------|
|-------------------------|-----------------------------|
|-------------------------|-----------------------------|
|-------------------------|-----------------------------|
|-------------------------|-----------------------------|
|
|  E  E  E  E  E  E  E  E    E  E   E   E   E   E  E  E
|----17----17----17----17-|----17--15--17------17-15-17-|
|-15----19----15----19----|-17-------------17-----------|
|-------------------------|-----------------------------|
|-------------------------|-----------------------------|
|-------------------------|-----------------------------|
|-------------------------|-----------------------------|

   E  E  E  E  E  E  +E   E    H.                 Q
|-21----21--0--0-24-(24)-21-|-22-----------------------|
|---------------------------|--------------------------|
|---------------------------|--------------------------|
|---------------------------|--------------------------|
|---------------------------|--------------------------|
|---------------------------|--------------------------|
|
|  E  E  E  E  E  E   E   E    E   E  E  E  E  E  E  E
|----17-15-17----17--15--17-|-----17----17----17----17-|
|-17----------17------------|-15-----19----15----19----|
|---------------------------|--------------------------|
|---------------------------|--------------------------|
|---------------------------|--------------------------|
|---------------------------|--------------------------|

   H           H             E  E  E  E  H
|--0-----------0----------|--0--0--0--0-24----------|
|-------------------------|-------------------------|
|-------------------------|-------------------------|
|-------------------------|-------------------------|
|-------------------------|-------------------------|
|-------------------------|-------------------------|
|
|  E  E  E  E  E  E  E  E    E  E  E  E  E  E  E  E
|----17----17----17----17-|----19----19----19----19-|
|-15----19----15----19----|-15----20----------20----|
|-------------------------|-------------19----------|
|-------------------------|-------------------------|
|-------------------------|-------------------------|
|-------------------------|-------------------------|

   H           H             E  E  E  E  H
|-21----------24----------|--0--0--0-24-22----------|
|-------------------------|-------------------------|
|-------------------------|-------------------------|
|-------------------------|-------------------------|
|-------------------------|-------------------------|
|-------------------------|-------------------------|
|
|  E  E  E  E  E  E  E  E    E  E  E  E  E  E  E  E
|----17-15-17----17-15-17-|----17----17----17-16-17-|
|-17----------------------|-15----19----19----------|
|-------------18----------|-------------------------|
|-------------------------|-------------------------|
|-------------------------|-------------------------|
|-------------------------|-------------------------|

   H           H             E  E  E  E  H
|--0-----------0----------|--0--0--0--0--0----------|
|-------------------------|-------------------------|
|-------------------------|-------------------------|
|-------------------------|-------------------------|
|-------------------------|-------------------------|
|-------------------------|-------------------------|
|
|  E  E  E  E  E  E  E  E    E  E  E  E  E  E  E  E
|----17----17----17----17-|-15-24----24----24----24-|
|-15----19----15----19----|-------24----------24----|
|-------------------------|-------------24----------|
|-------------------------|-------------------------|
|-------------------------|-------------------------|
|-------------------------|-------------------------|

   Q     E  E  H             E  E  E  E  H
|--0-----0--0--0----------|--0--0--0-24-22----------|
|-------------------------|-------------------------|
|-------------------------|-------------------------|
|-------------------------|-------------------------|
|-------------------------|-------------------------|
|-------------------------|-------------------------|
|
|  E  E  E  E  E  E  E  E    E  E  E  E  E  E  E  E
|-------------------------|-------------------------|
|----22-20-22----22-20-22-|----22----22-------19-20-|
|-21----------21----------|-------23-------21-------|
|-------------------------|-24----------24----------|
|-------------------------|-------------------------|
|-------------------------|-------------------------|

  Q=134
   E  E  E E  E E  E E    E  E  +Q     +H
|-22----22-0--0-0--0-0-|-24-21-(21)---(21)--------|
|----22----------------|--------------------------|
|----------------------|--------------------------|
|----------------------|--------------------------|
|----------------------|--------------------------|
|----------------------|--------------------------|
|
|  E  E  E E  E E  E E    E  E   E  E   E  E  E E
|----------------------|-17-----17-----17----17---|
|-22----22---22---22---|-20-----20-----20----20---|
|-23----23---23---23---|-21-----21-----21----21---|
|-24----24---24---24---|--------------------------|
|----------------------|--------------------------|
|----------------------|--------------------------|

   E  E  E E  E  E  +E   E    E E  Q    H
|-21----21-0--0-24-(24)-21-|-22-0--0----0----------|
|----22--------------------|-----------------------|
|--------------------------|-----------------------|
|--------------------------|-----------------------|
|--------------------------|-----------------------|
|--------------------------|-----------------------|
|
|  E  E  E E  E  E   E   E    E E  E E  E  E  E  E
|-17----17---17-----17-----|-17---17---22-21-19-17-|
|-20----20---20-----20-----|-19---19---22-22-22-20-|
|-21----21---21-----21-----|-19---19---19-21-23----|
|--------------------------|-----------------------|
|--------------------------|-----------------------|
|--------------------------|-----------------------|

   E  E  E E  E E  E E    E  E  +Q     +H
|-22----22-0--0-0--0-0-|-24-21-(21)---(21)--------|
|----22----------------|--------------------------|
|----------------------|--------------------------|
|----------------------|--------------------------|
|----------------------|--------------------------|
|----------------------|--------------------------|
|
|  E  E  E E  E E  E E    E  E   E  E   E  E  E E
|-17----17---17---17---|-17-----17-----17----17---|
|-19----19---19---19---|-20-----20-----20----20---|
|-19----19---19---19---|-21-----21-----21----21---|
|----------------------|--------------------------|
|----------------------|--------------------------|
|----------------------|--------------------------|

   E  E  E E  E  E  +E   E    W
|-21----21-0--0-24-(24)-21-|-22----------------*|
|----22--------------------|-------------------*|
|--------------------------|-------------------*|
|--------------------------|-------------------*|
|--------------------------|-------------------*|
|--------------------------|-------------------*|
|
|  E  E  E E  E  E   E   E    E  E  E  E  H
|-17----17---17-----17-----|----17----17-17----*|
|-20----20---20-----20-----|-15----19----19----*|
|-21----21---21-----21-----|-------------19----*|
|--------------------------|-------------------*|
|--------------------------|-------------------*|
|--------------------------|-------------------*|

um.... I'm Not sure if you can buy guitars with 24 frets,
but if you want the exact sound as in the game follow this tab,
 or additionally you can play this song an octave lower.

            
            
Suggest correction
Creating personal tab
Creating personal tab
You can edit any tab online and save it as your Personal.

You can edit, replace or remove any tab part or add personal notes – all changes will be seen only by you.

Personal tabs can be accessed anytime from any device, even offline.
Learn more »
Give kudos to tab author, rate the tab!
1 2 3 4 5
comments
print report bad tab
1 comment total.
0 reply
ozib971 25 Aug 21, 2017 06:30 AM

didn't like this contribution

guest
You may want to rate the tab now too:
select rating
Wanna post a correction for this tab? Suggest correction