Oops, an error
Loading. Please wait.

Re Zero Kara Hajimeru Isekai Seikatsu - Redo Tv Size tab

version 1
version 1

Whole song

Interactive

1,870 views 39 this week
no commentswrite comment
1 2 3 4 5
2 more votes to show rating
add to favorites
×
Save as Personal and add changes to this tab that will be seen only by you. Learn more ›
×
You can save this tab as Personal to edit and correct it or add notes. All changes will be seen only by you. Learn more »
launch autoscroll
font size
0
reset
how to read this tab
guitar tuner
edit
Autoscroll
slow
fast
+/-
esc
set tempo
stop
Author
Difficulty
intermediate
Video of me playing it here:
https://www.youtube.com/watch?v=kMIApLkv8yM

[Intro]
Phrase 1
Guitar 1
e|--------------------------|
B|--------------------------|
G|--------------------------|
D|-----------3-----3--3--3--|
A|-3--3---------------------|   
E|--------------------------|
                           x4
                                        
Guitar 2                                
e|--------------------------|
B|-----------6-----6--6--6--|
G|-5--5---------------------|
D|--------------------------|
A|--------------------------|
E|--------------------------|
                           x4

[Verse]
Phrase 2
Guitar 1
e|--------------------------|--------------------------|--------------------------|--------------------------|
B|--------------------------|--------------------------|--------------------------|--------------------------|
G|-----------5-----5--5--5--|-----------5-----5--5--5--|--------------------------|--------------------------|
D|--------------------------|--------------------------|-----------6-----6--6--6--|-----------6-----6--6--6--|
A|-3--3---------------------|-3--3---------------------|--------------------------|--------------------------|
E|--------------------------|--------------------------|-4--4---------------------|-4--4---------------------|

e|--------------------------|--------------------------|--------------------------|--------------------------|
B|--------------------------|--------------------------|--------------------------|--------------------------|
G|-----------8-----8--8--8--|-----------8-----8--8--8--|-----------6-----6--6--6--|-----------6-----6--6--6--|
D|--------------------------|--------------------------|--------------------------|--------------------------|
A|-6--6---------------------|-6--6---------------------|-4--4---------------------|-4--4---------------------|
E|--------------------------|--------------------------|--------------------------|--------------------------|
                                                                                                            x2

Guitar 2
e|-----------8-----8--8--8--|-----------8-----8--8--8--|--------------------------|--------------------------|
B|--------------------------|--------------------------|-----------9-----9--9--9--|-----------9-----9--9--9--|
G|-5--5---------------------|-5--5---------------------|--------------------------|--------------------------|
D|--------------------------|--------------------------|-6--6---------------------|-6--6---------------------|
A|--------------------------|--------------------------|--------------------------|--------------------------|
E|--------------------------|--------------------------|--------------------------|--------------------------|

e|----------11----11-11-11--|----------11----11-11-11--|-----------9-----9--9--9--|-----------9-----9--9--9--|
B|--------------------------|--------------------------|--------------------------|--------------------------|
G|-8--8---------------------|-8--8---------------------|-6--6---------------------|-6--6---------------------|
D|--------------------------|--------------------------|--------------------------|--------------------------|
A|--------------------------|--------------------------|--------------------------|--------------------------|
E|--------------------------|--------------------------|--------------------------|--------------------------|
                                                                                                            x2


Phrase 3
Guitar 1
e|----------4------------4--|---------6------4---------|----------6------------6--|---------8------6---------|
B|-----------------4--------|---4----------------4-----|-----------------6--------|---6---------------6------|
G|-------5------------5-----|------5-------------------|-------7------------7-----|------7-------------------|
D|--------------------------|--------------------------|----8---------------------|--------------------------|
A|----6---------------------|--------------------------|--------------------------|--------------------------|
E|-4------------------------|--------------------------|-6------------------------|--------------------------|

Phrase 4
Guitar 1 & 2
e|--------------------------|--------------------------|--------------------------|--------------------------|
B|-----------4-----4--4--4--|-----------4-----4--4--4--|-----------4-----4--4--4--|--------------------------|
G|--------------------------|--------------------------|--------------------------|-7-----------6------------|
D|--------------------------|--------------------------|--------------------------|--------------------------|
A|-3--3---------------------|-3--3---------------------|-3--3---------------------|-5-----------4------------|
E|--------------------------|--------------------------|--------------------------|--------------------------|

Phrase 5
Guitar 1
e|--------------------------|--------------------------|--------------------------|--------------------------|
B|--------------------------|--------------------------|--------------------------|------3----6--------------|
G|--------------------------|--------------------------|--------------------------|-4------------------------|
D|--------------------------|--------------------------|--------------------------|--------------------------|
A|--------------------------|--------------------------|--------------------------|--------------------------|
E|-1------------------------|-3------------------------|-4------------------------|--------------------------|

Guitar 2
e|-----------1--------------|--------------3-----------|-----------4--------------|----------13--------------|
B|--------------------------|-----------3-----3--------|------4---------4---------|12------------------------|
G|--------1-------1---------|--------3-----------3-----|-5------------------------|-----12-------------------|
D|--------------------------|--------------------------|--------------------------|--------------------------|
A|--------------------------|--------------------------|--------------------------|--------------------------|
E|--------------------------|--------------------------|--------------------------|--------------------------|

Phrase 6
Guitar 1 & 2
e|--------------------------|--------------------------|--------------------------|--------------------------|
B|-----------4-----4--4--4--|-----------4-----4--4--4--|-----------4-----4--4--4--|--------------------------|
G|--------------------------|--------------------------|--------------------------|-7-----------6------------|
D|--------------------------|--------------------------|--------------------------|--------------------------|
A|-3--3---------------------|-3--3---------------------|-3--3---------------------|-5-----------4------------|
E|--------------------------|--------------------------|--------------------------|--------------------------|

Phrase 7
Guitar 1
e|--------------------------|--------------------------|
B|-------------------6--6---|--7--7-----8----8---------|
G|-5--5-----8--8-----5--5---|--6--6-----7----7---------|
D|-5--5-----8--8-----3--3---|--4--4-----5----5---------|
A|-3--3-----6--6------------|--------------------------|
E|--------------------------|--------------------------|

Guitar 2
e|-8--8----11-11----13-13---|-14-14----15---15---------|
B|-8--8----11-11----13-13---|-14-14----15---15---------|
G|-5--5-----8--8----10-10---|-11-11----12---12---------|
D|--------------------------|--------------------------|
A|--------------------------|--------------------------|
E|--------------------------|--------------------------|

[Chorus]
Phrase 8
Guitar 1
e|--------------------------|--------------------------|--------------------------|--------------------------|
B|--------------------------|--------------------------|--------------------------|--------------------------|
G|-5------5--5--5--5--x---8-|-----8--8--8--8--8--8--8--|10-----10-10-10-10--x---8-|-----8--8--8--8--8--8--8--|
D|-5------5--5--5--5--x---8-|-----8--8--8--8--8--8--8--|10-----10-10-10-10--x---8-|-----8--8--8--8--8--8--8--|
A|-3------3--3--3--3--x---6-|-----6--6--6--6--6--6--6--|-8------8--8--8--8--x---6-|-----6--6--6--6--6--6--6--|
E|--------------------------|--------------------------|--------------------------|--------------------------|

e|--------------------------|--------------------------|--------------------------|--------------------------|
B|--------------------------|--------------------------|--------------------------|--------------------------|
G|--------------------------|--------------------------|--------------------------|--------------------------|
D|-3--3----x----3----3----5-|--------------------------|-6--6----x----6----6----5-|--------------------------|
A|-3--3----x----3----3----5-|--------------------------|-6--6----x----6----6----5-|--------------------------|
E|-1--1----x----1----1----3-|--------------------------|-4--4----x----4----4----5-|--------------------------|

e|--------------------------|--------------------------|--------------------------|--------------------------|
B|--------------------------|--------------------------|--------------------------|--------------------------|
G|-5------5--5--5--5--x---8-|-----8--8--8--8--8--8--8--|10-----10-10-10-10-10-10--|-8--x--x--8--x--x--8--x---|
D|-5------5--5--5--5--x---8-|-----8--8--8--8--8--8--8--|10-----10-10-10-10-10-10--|-8--x--x--8--x--x--8--x---|
A|-3------3--3--3--3--x---6-|-----6--6--6--6--6--6--6--|-8------8--8--8--8--8--8--|-6--x--x--6--x--x--6--x---|
E|--------------------------|--------------------------|--------------------------|--------------------------|

Guitar 2
e|-8------8--8--8--8--8--11-|----11-11-11-11-11-11-11--|13-----13-13-13-13-13--15-|----15-15-15-15-15-15-15--|
B|-8------8--8--8--8--5--11-|----11-11-11-11-11-11-11--|13-----13-13-13-13-13--15-|----15-15-15-15-15-15-15--|
G|-5------5--5--5--5--5---8-|-----8--8--8--8--8--8--8--|10-----10-10-10-10-10--12-|----12-12-12-12-12-12-12--|
D|--------------------------|--------------------------|--------------------------|--------------------------|
A|--------------------------|--------------------------|--------------------------|--------------------------|
E|--------------------------|--------------------------|--------------------------|--------------------------|

e|--------------------------|--------------------------|--------------------------|--------------------------|
B|--------------------------|--------------------------|--------------------------|--------------------------|
G|--------------------------|---------------------11b13|---------------------10b12|--------------------------|
D|--------------------------|--------------------------|--------------------------|--------------------------|
A|--------------------------|--------------------------|--------------------------|--------------------------|
E|--------------------------|--------------------------|--------------------------|--------------------------|

e|-11------------------13---|--------------------------|-15------------------18---|--------------------------|
B|-12b13---------------15b16|--------------------------|-17b18---------------14b16|--------------------------|
G|--------------------------|--------------------------|--------------------------|--------------------------|
D|--------------------------|--------------------------|--------------------------|--------------------------|
A|--------------------------|--------------------------|--------------------------|--------------------------|
E|--------------------------|--------------------------|--------------------------|--------------------------|

[Outro]
Phrase 9
Guitar 1
 PM-------|                 PM-------|                 PM-------|                 
e|--------------------------|--------------------------|--------------------------|--------------------------|
B|--------------------------|--------------------------|--------------------------|--------------------------|
G|--------------------------|--------------------------|--------------------------|--------------------------|
D|------------3-------------|------------5-------------|------------6-------------|-8------\-----------------|
A|------------3-------------|------------5-------------|------------6-------------|-8------\-----------------|
E|-1--1--1----1-------------|-3--3--3----3-------------|-4--4--4----4-------------|-6------\-----------------|

 PM-------|                 PM-------|                 PM-------|
e|--------------------------|--------------------------|--------------------------|--------------------------|
B|--------------------------|--------------------------|--------------------------|--------------------------|
G|--------------------------|--------------------------|--------------------------|--------------------------|
D|------------3-------------|------------5-------------|------------6-------------|-8------\-----------------|
A|------------3-------------|------------5-------------|------------6-------------|-8------\-----------------|
E|-1--1--1----1-------------|-3--3--3----3-------------|-4--4--4----4-------------|-6------\-----------------|

                               PM----|  PM----|  PM-------|  PM----|   PM    PM      PM----|  PM----|   PM
e|--------------------------|--------------------------|--------------------------|--------------------------|
B|--------------------------|--------------------------|--------------------------|--------------------------|
G|--------------------------|--------------------------|--------------------------|--------------------------|
D|--------------------------|-3--------3--------3------|----3--------3-----3------|-5--------5--------5------|
A|--------------------------|-3--------3--------3------|----3--------3-----3------|-5--------5--------5------|
E|--------------------------|-1--1--1--1--1--1--1--1---|-1--1--1--1--1--1--1--1---|-3--3--3--3--3--3--3--3---|
 
   PM  PM----|
e|--------------------------|--------------------------|--------------------------|--------------------------|
B|--------------------------|--------------------------|--------------------------|--------------------------|
G|--------------------------|--------------------------|-3--3--3--3--3--3---------|--------------------------|
D|----5--------5------------|-6------------------------|-3--3--3--3--3--3---------|-----------3-----3--3--3--|
A|----5--------5------------|-6------------------------|-1--1--1--1--1--1---------|-3--3---------------------|
E|-3--3--3--3--3------------|-4------------------------|--------------------------|--------------------------|


Guitar 2
e|--------------------------|--------------------------|--------------------------|--------------------------|
B|--------------------------|--------------------------|--------------------------|--------------------------|
G|--------------------------|--------------------------|--------------------------|--------------------------|
D|--------------------------|--------------------------|--------------------------|--------------------------|
A|--------------------------|--------------------------|--------------------------|--------------------------|
E|--------------------------|--------------------------|--------------------------|--------------------------|

 PM-------|                 PM-------|                 PM-------|
e|--------------------------|--------------------------|--------------------------|--------------------------|
B|--------------------------|--------------------------|--------------------------|--------------------------|
G|--------------------------|--------------------------|--------------------------|--------------------------|
D|------------3-------------|------------5-------------|------------6-------------|-8------\-----------------|
A|------------3-------------|------------5-------------|------------6-------------|-8------\-----------------|
E|-1--1--1----1-------------|-3--3--3----3-------------|-4--4--4----4-------------|-6------\-----------------|


e|--------------------------|--------------------------|--------------------------|--------------------------|
B|--------------------------|--------------------------|--------------------------|--------------------------|
G|--------------------------|--------------------------|--------------------------|--------------------------|
D|-x/x----------------------|--------------------------|--------------------------|--------------------------|
A|-x/x----------------------|--------------------------|--------------------------|--------------------------|
E|-x/x----------------------|--------------------------|--------------------------|--------------------------|


e|--------------------------|11------------------------|13-13-13-13-13-13---------|--------------------------|
B|--------------------------|13------------------------|13-13-13-13-13-13---------|-----------6-----6--6--6--|
G|--------------------------|13------------------------|10-10-10-10-10-10---------|-5--5---------------------|
D|--------------------------|13------------------------|--------------------------|--------------------------|
A|--------------------------|11------------------------|--------------------------|--------------------------|
E|--------------------------|--------------------------|--------------------------|--------------------------|

************************
x = muted string
PM = palm mute
/ = slide up
\ = slide down
b = bend
************************

            
            
Suggest correction
Creating personal tab
Creating personal tab
You can edit any tab online and save it as your Personal.

You can edit, replace or remove any tab part or add personal notes – all changes will be seen only by you.

Personal tabs can be accessed anytime from any device, even offline.
Learn more »
Give kudos to tab author, rate the tab!
1 2 3 4 5
comments
print report bad tab
guest
You may want to rate the tab now too:
select rating
Wanna post a correction for this tab? Suggest correction