Oops, an error
Loading. Please wait.

Regular Show - Party Tonight tab

version 2
version 2

Whole song

Interactive

1,372 views 30 this week
5 commentsread comments
1 2 3 4 5
x 4
add to favorites
×
Save as Personal and add changes to this tab that will be seen only by you. Learn more ›
×
You can save this tab as Personal to edit and correct it or add notes. All changes will be seen only by you. Learn more »
launch autoscroll
font size
0
reset
how to read this tab
guitar tuner
edit
Autoscroll
slow
fast
+/-
esc
set tempo
stop
Author
Difficulty
There is a few tabs for this song online, but NONE the way Sean Szeles actually plays it!
so i made this one the way he actually made the song origianlly! Thanks for making one
of the greatest TV shows of All time, Gonna truly miss it


Here is a link to the song

https://www.youtube.com/watch?v=hq9ifi_jHFk


Party Tonight by Mordecai and the Rigby's (Sean Szeles)

As always listen to song for timing

Tab by King Kenroy


[Intro]

e|---------------------------------------------------------------------------|
B|---------------------------------------------------------------------------|
G|------7~-------------------7-7-7~------------------------------------------|
D|------7~-------------------7-7-7~------------------------------------------|  
A|------5~-------------------5-5-5~------------------------------------------|
E|---------------------------------------------------------------------------|


e|---------------------------------------------------------------------------|
B|---------------------------------------------------------------------------|
G|--7-5---5------------------------------------------------------------------|
D|------7---7-5--------------------------------------------------------------|   Repeat 7x
A|--------------8-7-5---5-7--------------------------------------------------|
E|--------------------8------------------------------------------------------|

e|---------------------------------------------------------------------------|
B|---6-5---5-----------------------------------------------------------------|
G|-------7----7-5-7-5--------------------------------------------------------|
D|---------------------7---5-7-----------------------------------------------|   Repeat 5x
A|-----------------------8---------------------------------------------------|
E|---------------------------------------------------------------------------|
                      1st Harmony

e|---5-----------------------------------------------------------------------|
B|------8-6-8-6-5-6-5--------------------------------------------------------|
G|--------------------7-5---5------------------------------------------------|
D|------------------------7--------------------------------------------------|   Repeat 3x
A|---------------------------------------------------------------------------|
E|---------------------------------------------------------------------------|
                      2nd Harmony


D                       C
Your eyes staring into my eyes,
       F        A#           D           C
Who am I but a guy with two eyes on the prize
D                    C
And the prize in my eyes is 10 times,
        F        A#             D           C
The surprise in your eyes as I kiss you goodnight.
 A#                           A      D
Your smile is the fire that rocks my soul
       F         C               A#
Gonna remember it until I grow old,
A#                           A        D
'Cause life is too short we gotta do things right,
F                   C         A#
So baby let's just party toni-ight
F                 C        A#
Baby let's just party toni-ight.


[Interlude]


e|---------------------5---5------------5-6-5--------------------------------|
B|----5-6-5---5-5~-------8----8-6-8-6-8-------8~~---6-5----------------------|
G|--7-------7----------------------------------------------------------------|   Repeat 2x
D|---------------------------------------------------------------------------|
A|---------------------------------------------------------------------------|
E|---------------------------------------------------------------------------|

   Harmony
e|--------5----------8-6-8-6-5-6-5-6-8-10-6----------------------------------|
B|---6-8----8-6-8-8~------------------------8~-------------------------------|
G|---------------------------------------------------------------------------|   Repeat 2x
D|---------------------------------------------------------------------------|
A|---------------------------------------------------------------------------|
E|---------------------------------------------------------------------------|


[Solo]

e|--------5-6-8-6-5-6-5---6~-------------------------------------------------|
B|--5-6-8---------------8-----8-6-8-6-5-----------5--6-5~~-------------------|
G|--------------------------------------7-5---5-7----------------------------|
D|------------------------------------------8--------------------------------|
A|---------------------------------------------------------------------------|
E|---------------------------------------------------------------------------|

e|----------5-6-8-6-8-8-10-8-6-5---5h6p---6----------------------------------|
B|----5-6-8-----------------------------8---8-6-8-6-5-----------5------------|
G|--7-------------------------------------------------7-5---5-7---7~---------|
D|--------------------------------------------------------8------------------|
A|---------------------------------------------------------------------------|
E|---------------------------------------------------------------------------|

e|---------------------------------------------------------------------------|
B|------5-6--8-6-8-6-5--------5----------------------------------------------|
G|----7----------------7-5------7~-------------------------------------------|
D|-------------------------8-------------------------------------------------|
A|---------------------------------------------------------------------------|
E|---------------------------------------------------------------------------|


[Verse]
A#                       A          D
We've come out on top, We're in front of the line,
      F           C               A#
We're here to rock out and have a good time,
A#                          A         D
'Cause the past is the past and the future is bright,
F                   C         A#
So baby let's just party toni-ight
F                 C        A#
Baby let's just party toni-ight.


[Outro]


e|---------------------5---5------------5-6-5--------------------------------|
B|----5-6-5---5-5~-------8----8-6-8-6-8-------8~~---6-5----------------------|
G|--7-------7----------------------------------------------------------------|   (Fade out)
D|---------------------------------------------------------------------------|
A|---------------------------------------------------------------------------|
E|---------------------------------------------------------------------------|

************************************

| h   Hammer-on
| p   Pull-off

| /   Slide up
| \   Slide down
| ~   Vibrato


************************************

            
            
Suggest correction
Creating personal tab
Creating personal tab
You can edit any tab online and save it as your Personal.

You can edit, replace or remove any tab part or add personal notes – all changes will be seen only by you.

Personal tabs can be accessed anytime from any device, even offline.
Learn more »
comments
print report bad tab
5 comments total. Showing first comments.
+1 reply
mortal_mans 59 Mar 05, 2017 03:00 PM

Great tab, but i think every D chord should be Dm

0 reply
King_Kenroy 428 Apr 14, 2017 05:41 PM

Took this directly from an interview with Sean Szeles! This is the way he wrote it!

0 reply
King_Kenroy 428 Apr 14, 2017 05:41 PM

Took this directly from an interview with Sean Szeles! This is the way he wrote it!

guest
You may want to rate the tab now too:
select rating
Wanna post a correction for this tab? Suggest correction