Oops, an error
Loading. Please wait.

Rick And Morty - Human Music tab

889 views 111 this week
17 commentsread comments
1 2 3 4 5
x 48
add to favorites
×
Save as Personal and add changes to this tab that will be seen only by you. Learn more ›
×
You can save this tab as Personal to edit and correct it or add notes. All changes will be seen only by you. Learn more »
launch autoscroll
font size
0
reset
how to read this tab
guitar tuner
edit
Autoscroll
slow
fast
+/-
esc
set tempo
stop
[Main riff]
e|-----------|
B|-----------|
G|--2--4--2--|
D|-----------|
A|-----------|
E|-----------|

e|-----------|
B|-----------|
G|--2--4--2--|
D|-----------|
A|-----------|
E|-----------|

e|-----------|
B|-----------|
G|--2--4--2--|
D|-----------|
A|-----------|
E|-----------|

e|-----------|
B|-----------|
G|--2--4--2--|
D|-----------|
A|-----------|
E|-----------|

e|-----------|
B|-----------|
G|--2--4--2--|
D|-----------|
A|-----------|
E|-----------|

            
            
Suggest correction
Creating personal tab
Creating personal tab
You can edit any tab online and save it as your Personal.

You can edit, replace or remove any tab part or add personal notes – all changes will be seen only by you.

Personal tabs can be accessed anytime from any device, even offline.
Learn more »
comments
print report bad tab
17 comments total. Showing first comments.
+81 reply
bmxthe1ramp 63 Aug 07, 2017 05:51 PM

Holy shit, this has to be the hardest song I've ever played on my guitar. Too fast, my fingers are killing me!

+70 reply
bwstobbe 12 Aug 12, 2017 12:08 AM

human music.....i like it!

+11 reply
naray502 10 Aug 22, 2017 01:56 PM

This is harder than Through the Fire and Flamed

guest
You may want to rate the tab now too:
select rating
Wanna post a correction for this tab? Suggest correction