Oops, an error
Loading. Please wait.

Spongebob Squarepants - Krusty Krab Theme tab

version 2
version 2

Whole song

  • This is the remix of krusty krab theme and the original theme.

Interactive

1,141 views 63 this week
1 commentread comment
1 2 3 4 5
x 3
add to favorites
×
Save as Personal and add changes to this tab that will be seen only by you. Learn more ›
×
You can save this tab as Personal to edit and correct it or add notes. All changes will be seen only by you. Learn more »
launch autoscroll
font size
0
reset
how to read this tab
guitar tuner
edit
Autoscroll
slow
fast
+/-
esc
set tempo
stop
Author
Difficulty
About this tab version
This is the remix of krusty krab theme and the original theme. Was this info helpful? Yes No
Original 
Krusty Krab theme:

6/8
half note : h
quater note : q


   q  q  q  q  q  h  q  h  q  q  q  q  q  q  q  q  q  h  q  h  q  h  q  h  q  h

e|----------------------------------3--2--3--5--3--2--3-----------------------------|
B|-3--2--1--0-----------0-----3--0-----------------------3--0-----------------------|
G|-------------0-----0-----0-----------------------------------0------------0--2----| 
D|----------------0-----------------------------------------------4--2--4-----------|
A|----------------------------------------------------------------------------------|
E|----------------------------------------------------------------------------------|


   q  q  q  q  h  q  h  q  h   q  h  q  q  q  h  q  h  q  h  q  q  q  q  q  q  q  h       

e|----------------------0--2------------------------------------3--2--3--5--3--2--3-|
B|-0-----0-----3--2--3---------3--1-----0-----------0-----3--0----------------------|
G|----5-----2------------------------2-----0-----0-----0----------------------------| 
D|--------------------------------------------0-------------------------------------|
A|----------------------------------------------------------------------------------|
E|----------------------------------------------------------------------------------|


    q  h  q  q  q  q  h  q  h  q  h  q  h  q  h  q  h  q  q  q  q  q  h  q  h   q         

e|--------------------3-------------------------------------------------------------|
B|--3--0-----0--1--3-----3--1--------------------------3--2--1--0-----------0-------|
G|--------0--------------------2-----0--2--0--0-----0--------------0-----0------0---| 
D|--------------------------------4--------------4--------------------0-------------|
A|----------------------------------------------------------------------------------|
E|----------------------------------------------------------------------------------|


    h  q  q  q  q  q  q  q  h  q  h   q  h  q  h  q  h  q  q  q  q  h  q  h  q  h               

e|--------3--2--3--5--3--2--3------------------------------------------------0--2---|
B|--3--0-----------------------3--0---------------------0--1--0-----3--2--3---------|
G|------------------------------------0-----------0--2-----------2------------------| 
D|---------------------------------------4--2--4------------------------------------|
A|----------------------------------------------------------------------------------|
E|----------------------------------------------------------------------------------|

    q  h  q  h  q  h  q  h  q  h  q  q  q  q  q  q  q  h  q  h  q  q  q  q  h  q             

e|-----------------------------------3--2--3--5--3--2--3--------------------3-------|
B|--3--1-----0-----------0-----3--0-----------------------3--0-----0--1--3-----3----|
G|--------2-----0-----0-----0-----------------------------------0-------------------| 
D|-----------------0----------------------------------------------------------------|
A|----------------------------------------------------------------------------------|
E|----------------------------------------------------------------------------------|

      h  q   h  q  h  q  h  q  h              

e|---------------------------------------------------|
B|----1----------------------------------------------|
G|--------2------0--2--0--0-----0--------------------| 
D|------------4--------------4-----------------------|
A|---------------------------------------------------|
E|---------------------------------------------------|






Krusty Krab trap remix:

[Intro]

e|-------------------------------------------------------------------------------|
B|-----------------------87810878------------------------------------------------| (2time Hoo!)
G|--4----------4-----7------------7---------------4h5p4---7-6-7--9-/11--7--5-----| 3x
D|-----5--0--5----5-----------------9-5-4---4-5-7-------7--------------------7---| (no Hoo! (1st,3rd time))
A|----------------------------------------7--------------------------------------|
E|-------------------------------------------------------------------------------|

[bridge]

e|---------------------------------------------3h5p3-----------------------------| (always 2nd 'riff' after 
B|-----------------------87810878------------3-------3---------------------------|  Hoo!)
G|--4----------4-----7------------7------4-5-----------5/7-------------7-6-5-----| 1x
D|-----5--0--5----5-----------------9-(5)------------------5-7-5-5-4-5-----------|
A|-------------------------------------------------------------------------------|
E|-------------------------------------------------------------------------------|



[outro = intro]

e|-------------------------------------------------------------------------------|
B|-----------------------87810878------------------------------------------------|
G|--4----------4-----7------------7---------------4h5p4---7-6-7--9-/11--7--5-----| 4x
D|-----5--0--5----5-----------------9-5-4---4-5-7-------7--------------------7---|
A|----------------------------------------7--------------------------------------|
E|-------------------------------------------------------------------------------|

Repeat All.


It is pretty fast.

87810878 = 8-7-8-10-7-8, fastest part, like a flute can do.

music :
https://www.youtube.com/watch?v=vE2ETqUGj6Q

************************************

| (n) Ghost note
| h   Hammer-on
| p   Pull-off
| /   Slide up

************************************

            
            
Suggest correction
Creating personal tab
Creating personal tab
You can edit any tab online and save it as your Personal.

You can edit, replace or remove any tab part or add personal notes – all changes will be seen only by you.

Personal tabs can be accessed anytime from any device, even offline.
Learn more »
Give kudos to tab author, rate the tab!
1 2 3 4 5
comments
print report bad tab
1 comment total.
0 reply
keistuolis12 10 Nov 14, 2017 03:31 PM

really well done

guest
You may want to rate the tab now too:
select rating
Wanna post a correction for this tab? Suggest correction