Oops, an error
Loading. Please wait.

Steven Universe - Love Like You The Ocean Returns tab

3,154 views 3 this week
1 commentread comment
1 2 3 4 5
x 6
add to favorites
×
Save as Personal and add changes to this tab that will be seen only by you. Learn more ›
×
You can save this tab as Personal to edit and correct it or add notes. All changes will be seen only by you. Learn more »
launch autoscroll
font size
0
reset
how to read this tab
guitar tuner
edit
Autoscroll
slow
fast
+/-
esc
set tempo
stop
-------------------------------------------------------------------------------
                             Love Like You - Rebecca Sugar
-------------------------------------------------------------------------------
Very basic tab of Love Like You. Listen to the song for timing

Tuning:

e|----------6-------------------------------11------11-----------------------|
B|-----8---------8---------8-------9-----------------------------------------|
G|---------------------------------------------------------------------------|
D|---------------------------------------------------------------------------|
A|---------------------------------------------------------------------------|
E|---------------------------------------------------------------------------|

e|-----------10--------------------------------13------13--------------------|
B|-----11----------11---------11-------12------------------------------------|
G|---------------------------------------------------------------------------|
D|---------------------------------------------------------------------------|
A|---------------------------------------------------------------------------|
E|---------------------------------------------------------------------------|

e|---------------------------------------------------------------------------|
B|---------------------------------------------------------------------------|
G|-----------10-----12-----10------------------------------------------------|
D|----13---------------------------13------12------13-----10-----------------|
A|---------------------------------------------------------------------------|
E|---------------------------------------------------------------------------|

e|-----------------------------------------------------------------6---------|
B|---------------------------------------------------------------------------|
G|--------------------------------------------------------5------------------|
D|---10----------11-----10------------------------7--------------------------|
A|----------------------------10--------8------------------------------------|
E|---------------------------------------------------------------------------|

            
            
Suggest correction
Creating personal tab
Creating personal tab
You can edit any tab online and save it as your Personal.

You can edit, replace or remove any tab part or add personal notes – all changes will be seen only by you.

Personal tabs can be accessed anytime from any device, even offline.
Learn more »
comments
print report bad tab
1 comment total.
0 reply
jbirdy 10 Apr 12, 2016 06:46 PM

It is inaccurate and unfinished. I wish it had the rhythm at least a little bit spaced out. It plays in random octaves, too.

guest
You may want to rate the tab now too:
select rating
Wanna post a correction for this tab? Suggest correction