Oops, an error
Loading. Please wait.

Steven Universe - Strong In The Real Way bass

685 views 6 this week
1 commentread comment
1 2 3 4 5
1 last vote to show rating
add to favorites
×
Save as Personal and add changes to this tab that will be seen only by you. Learn more ›
×
You can save this tab as Personal to edit and correct it or add notes. All changes will be seen only by you. Learn more »
launch autoscroll
font size
0
reset
guitar tuner
edit
Autoscroll
slow
fast
+/-
esc
set tempo
stop
Steven Universe - Strong in the Real Way (Composed by Rebecca Sugar)

Tabbed by: Ash (XxThreeCheersxX)
email: burdickash@gmail.com

Note: Electric bass doesn't come in until after Pearl's verse, but I added the roots of the piano chords 
so you can still play along until then.  Happy playing!

"Why do you have to look up to her/aside from in a literal sense..."
G|---------------------------------------------------------|
D|---------------1~----------------------------------------|
A|-----------------------------1~------------5~------------| x 2
E|-3~------------------------------------------------------|

"And can't you see that she's out of control/and overzealous..."
G|---------------------------------------------------------------------------------------------------------|
D|-----------------------3~------------1~----------------------------------------2~------------2--2--2--2--|
A|-3---3---3--3---3---3------------------------------1~------------2~--------------------------------------|
E|---------------------------------------------------------------------------------------------------------|

"I can show you how to be strong/in the real way..."
G|-----------------------------------------------------------------------------------------|
D|------------1---1---1-----------------------------------1---1---1------------------------|
A|-----------------------1---1---1--5---5---5------------------------1---1---3--5---5---5--|
E|-3---3---3-----------------------------------3---3---3-----------------------------------|

"And I want to inspire you/I want to be your rock..."
G|-----------------------------------------------------------------------------------------|
D|-------------------------5--5--5--5--------------3--3--3--3------------------------------|
A|-3--3--3--3--5--5--5--5--------------3--3--3--3--------------1~------------5~------------|
E|-----------------------------------------------------------------------------------------|

(Guitars come in)
G|---------------------------------------------------------|
D|---------------1~----------------------------------------|
A|-----------------------------1~------------5~------------| x 2
E|-3~------------------------------------------------------|

G|---------------------------------------------------------|
D|-----------------------------------2---2---2--2---2---2--|
A|-1---1---1--1--1--2---2---2--2--2------------------------|
E|---------------------------------------------------------|

"I can show you how to be strong/in the real way..."
G|-----------------------------------------|
D|-----------1----1------------------------|
A|---------------------1----1----5----5----| x 2
E|-3----3----------------------------------|

"I want to inspire you/I want to be your rock..."
G|---------------------------------------------------------------------------------|
D|---------------------------------------------------------------------------------|
A|-3----3----5----5--------------3----3--------------1----1----5----5----5----5----|
E|---------------------3----3--------------1----1----------------------------------|

G|---------------------------------------------------------------------------------|
D|---------------------------------------------------------------------------------|
A|-3----3----5----5--------------3----3----1~------------5~------------------------|
E|---------------------3----3------------------------------------------3~----------|

Happy playing!


| x   Dead note
| g   Grace note
| (n) Ghost note
| h   Hammer-on
| p   Pull-off
| r   Release
| >   Accented note
| t   Tapping
| b   Bend
| br  Bend release
| pb  Pre-bend
| pbr Pre-bend release
| /   Slide up
| \   Slide down
| ~   Vibrato
| s   Slap
| P   Pop
| PM  Palm mute
| TR  Trill
| N   Tremolo

************************************

            
            
Suggest correction
Creating personal tab
Creating personal tab
You can edit any tab online and save it as your Personal.

You can edit, replace or remove any tab part or add personal notes – all changes will be seen only by you.

Personal tabs can be accessed anytime from any device, even offline.
Learn more »
Give kudos to tab author, rate the tab!
1 2 3 4 5
comments
print report bad tab
1 comment total.
0 reply
dedejones2442 59 Sep 06, 2017 10:05 PM

Great job Sound really good

guest
You may want to rate the tab now too:
select rating
Wanna post a correction for this tab? Suggest correction