Oops, an error
Loading. Please wait.

Steven Universe - What Can I Do For You bass

1,003 views 6 this week
no commentswrite comment
1 2 3 4 5
2 more votes to show rating
add to favorites
×
Save as Personal and add changes to this tab that will be seen only by you. Learn more ›
×
You can save this tab as Personal to edit and correct it or add notes. All changes will be seen only by you. Learn more »
launch autoscroll
font size
0
reset
guitar tuner
edit
Autoscroll
slow
fast
+/-
esc
set tempo
stop
Steven Universe - What Can I Do For You

Tabbed by: Ash (XxThreeCheersxX)
email: burdickash@gmail.com

Intro
G|----------------------------------------------5--5--5-----------5--5--5-------------|
D|------------------------------------------------------------------------------------|
A|-5--5--5--5--5--5--5--5--5--5--5--5--3--3--3-----------3--3--3----------------------|
E|-------------------------------------------------------------------------3~---------|

"What can I do for you"
G|-------------------------------------------------------------|
D|-------------------------------------------------------------|
A|-------------------------------2--2--2--2x----2--2--2--2x----|
E|-3--3--3--3x----3--3--3--3x----------------------------------|

"What can I do that no one else can do"
G|----------------------------------------------------|
D|----------------------------------------------------|
A|-------------------------------2----2----/5----5----|
E|-3--3--3--3x----3--3--3--3x-------------------------|

"What can I do for you"
G|-------------------------------------------------------------|
D|-------------------------------------------------------------|
A|-------------------------------2--2--2--2x----2--2--2--2x----|
E|-3--3--3--3x----3--3--3--3x----------------------------------|

"What can I do for you"
G|----------------------------------------------------|
D|----------------------------------------------------|
A|-------------------------------2~-------------------|
E|-3--3--3--3x----3--3--3--3x-------------------------|

"Human man, you are so much fun"
G|-------------------------------------------------------------|
D|-------------------------------------------------------------|
A|-------------------------------2--2--2--2x----2--2--2--2x----|
E|-0--0--0--0x----0--0--0--0x----------------------------------|

"I hadn't planned on finding you quite this entertaining"
G|----------------------------------------------------|
D|----------------------------------------------------|
A|-------------------------------5----5----/9----9----|
E|-0--0--0--0x----0--0--0--0x-------------------------|

"I like your band and I like your song"
G|-------------------------------------------------------------|
D|-------------------------------------------------------------|
A|-------------------------------2--2--2--2x----2--2--2--2x----|
E|-0--0--0--0x----0--0--0--0x----------------------------------|

"I like the way human beings play, I like playing along"
G|----------------------------------------------5--5--5-----------5--5--5-------------|
D|------------------------------------------------------------------------------------|
A|-5--5--5--5--5--5--5--5--5--5--5--5--3--3--3-----------3--3--3----------------------|
E|-------------------------------------------------------------------------3~---------|

"What can I do for you"
G|-------------------------------------------------------------|
D|-------------------------------------------------------------|
A|-------------------------------2--2--2--2x----2--2--2--2x----|
E|-3--3--3--3x----3--3--3--3x----------------------------------|

"What can I do that no one else can do"
G|----------------------------------------------------|
D|----------------------------------------------------|
A|-------------------------------2----2----/5----5----|
E|-3--3--3--3x----3--3--3--3x-------------------------|

"What can I do for you"
G|-------------------------------------------------------------|
D|-------------------------------------------------------------|
A|-------------------------------2--2--2--2x----2--2--2--2x----|
E|-3--3--3--3x----3--3--3--3x----------------------------------|

"What can I do for you"
G|----------------------------------------------------|
D|----------------------------------------------------|
A|-------------------------------2~-------------------|
E|-3--3--3--3x----3--3--3--3x-------------------------|

Guitar solo!
G|-------------------------------------------------------------|
D|-------------------------------------------------------------|
A|-------------------------------2--2--2--2x----2--2--2--2x----|
E|-3--3--3--3x----3--3--3--3x----------------------------------|

G|----------------------------------------------------|
D|----------------------------------------------------|
A|-------------------------------2----2----/5----5----|
E|-3--3--3--3x----3--3--3--3x-------------------------|

G|-------------------------------------------------------------|
D|-------------------------------------------------------------|
A|-------------------------------2--2--2--2x----2--2--2--2x----| x until the end of the song
E|-3--3--3--3x----3--3--3--3x----------------------------------|

end on:
G|---------------------|
D|---------------------|
A|---------------------|
E|-3x------------------|

Happy playing!

************************************

| x   Dead note
| g   Grace note
| (n) Ghost note
| h   Hammer-on
| p   Pull-off
| r   Release
| >   Accented note
| t   Tapping
| b   Bend
| br  Bend release
| pb  Pre-bend
| pbr Pre-bend release
| /   Slide up
| \   Slide down
| ~   Vibrato
| s   Slap
| P   Pop
| PM  Palm mute
| TR  Trill
| N   Tremolo

************************************

            
            
Suggest correction
Creating personal tab
Creating personal tab
You can edit any tab online and save it as your Personal.

You can edit, replace or remove any tab part or add personal notes – all changes will be seen only by you.

Personal tabs can be accessed anytime from any device, even offline.
Learn more »
Give kudos to tab author, rate the tab!
1 2 3 4 5
comments
print report bad tab
guest
You may want to rate the tab now too:
select rating
Wanna post a correction for this tab? Suggest correction