Oops, an error
Loading. Please wait.

Steven Universe - What Can I Do For You tab

version 1
version 1

Whole song

5,992 views 30 this week
no commentswrite comment
1 2 3 4 5
x 7
add to favorites
×
Save as Personal and add changes to this tab that will be seen only by you. Learn more ›
×
You can save this tab as Personal to edit and correct it or add notes. All changes will be seen only by you. Learn more »
launch autoscroll
font size
0
reset
how to read this tab
guitar tuner
edit
Autoscroll
slow
fast
+/-
esc
set tempo
stop
"What Can I Do For You?" as sung by Greg Universe and Rose Quartz

No Capo
Standard tuning

Chorus riff

     G                        Bm
e|------------3-----------3------------7------------7--|
B|------------3-----------3------------7------------7--|
G|------------4-----------4------------7------------7--|
D|------5-----5-----5-----5------9-----9------9-----9--|
A|---------5--5--------5--5---------9--9---------9--9--|
E|---3--------3---3-------3---7--------7---7--------7--|

     G                        Bm     D
e|------------3-----------3---7--7---5--5--------------|
B|------------3-----------3---7--7---7--7--------------|
G|------------4-----------4---7--7---7--7--------------|
D|------5-----5-----5-----5---9--9---7--7--------------|
A|---------5--5--------5--5---9--9---5--5--------------|
E|---3--------3---3-------3---7--7---x--x--------------|

Verse Riff

     Em                       Bm
e|------------7------------7------------7------------7--|
B|------------8------------8------------7------------7--|
G|------9-----9------9-----9------------7------------7--|
D|--------9-- 9---------9--9------9-----9------9-----9--|
A|---7--------7---7--------7---------9--9---------9--9--|
E|----------- x------------x---7--------7---7--------7--|

     Em                        D      F#
e|------------7------------7---5--5---9--11-------------|
B|------------8------------8---7--7---11-11-------------|
G|------9-----9------9-----9---7--7---11-11-------------|
D|---------9--9---------9--9---7--7---11-11-------------|
A|---7--------7---7--------7---5--5---9--9--------------|
E|------------x------------x---x--x---x--x--------------|

During the riffs strum upward after picking the strings


Intro chords: D  C  C7  G


G                 Bm            G
What can I do for you?
                   Bm              D          G
What can I do that no one else can do?
                  Bm            G
What can I do for you?
                  Bm
What can I do for you?

      Em
Human man,
              Bm
You are so much fun
         Em                     D               F#
I hadn't planned on finding you quite this entertaining
            Em                   Bm
I like your band and I like your song
           D                C7
I like the way human beings play
                G
I like playing along

Oh

G                 Bm      G
What can I do for you?
                   Bm              D         G
What can I do that no one else can do?
                  Bm       G
What can I do for you?
                  Bm
What can I do for you?

            
            
Suggest correction
Creating personal tab
Creating personal tab
You can edit any tab online and save it as your Personal.

You can edit, replace or remove any tab part or add personal notes – all changes will be seen only by you.

Personal tabs can be accessed anytime from any device, even offline.
Learn more »
comments
print report bad tab
guest
You may want to rate the tab now too:
select rating
Wanna post a correction for this tab? Suggest correction