Oops, an error
Loading. Please wait.

Steven Universe Theme tab

version 2
version 2

Whole song

Interactive

4,279 views 1 this week
1 commentread comment
1 2 3 4 5
x 5
add to favorites
×
Save as Personal and add changes to this tab that will be seen only by you. Learn more ›
×
You can save this tab as Personal to edit and correct it or add notes. All changes will be seen only by you. Learn more »
launch autoscroll
font size
0
reset
how to read this tab
guitar tuner
edit
Autoscroll
slow
fast
+/-
esc
set tempo
stop
-------------------------------------------------------------------------------
                            STEVEN UNIVERSE THEME - Rebecca Sugar
-------------------------------------------------------------------------------
Tabbed by: pnguin
E-mail: punguino@gmail.com


Tuning: Standard


Main melody (Listen to the song for timing)
[Note: All chords are barred. F is best played at 7th fret to match melody tab]

    F                   A7                      A#                          A#m
e|----------------------------------------------------------------------------------------------|
B|---------10--8--6--8--5-----------10--8--6--5--6-----5--10--8--6--5--6--------10--8--6--5--6--|
G|--10---------------------------6-------------------------------------------6------------------|
D|----------------------------------------------------------------------------------------------|
A|----------------------------------------------------------------------------------------------|
E|----------------------------------------------------------------------------------------------|

    F                  A7                    A#                     A#m
e|----------------------------------------------------------------------------------------------|
B|--------10--8--6--8--5--------------8--8--6------10--8-----6--8--6---------10------8--8--6----|
G|------------------------6-----------------------------------------------6---------------------|
D|--10-----------------------7------------------------------------------------------------------|
A|----------------------------------------------------------------------------------------------|
E|----------------------------------------------------------------------------------------------|


CHORDS [Key: F]

F                        A7
If you're evil and you're on the rise
A#                   A#m
You can count on the four of us taking you down
F                         A7
Cause we're good and evil never beats us
A#                              A#m
We'll win the fight and then go out for pizzas


We are the Crystal Gems
We'll always save the day
And if you think we can't
We'll always find a way
That's why the people of this world believe in
Garnet, Amethyst, and Pearl and Steven!



************************************

| /   slide up
| \   slide down
| h   hammer-on
| p   pull-off
| ~   vibrato
| +   harmonic
| x   Mute note
| b   Bend
| pb  Pre-bend
| br  Bend release
| pbr Pre-bend release
| brb Bend release bend

************************************

            
            
Suggest correction
Creating personal tab
Creating personal tab
You can edit any tab online and save it as your Personal.

You can edit, replace or remove any tab part or add personal notes – all changes will be seen only by you.

Personal tabs can be accessed anytime from any device, even offline.
Learn more »
comments
print report bad tab
1 comment total.
0 reply
Leana2019Makia 10 Jun 02, 2016 06:20 PM

its really good ^-^ ! THNX!!!

guest
You may want to rate the tab now too:
select rating
Wanna post a correction for this tab? Suggest correction