Oops, an error
Loading. Please wait.

The Flintstones Theme tab

version 5
version 5
22,816 views 18 this week
7 commentsread comments
1 2 3 4 5
x 28
add to favorites
×
Save as Personal and add changes to this tab that will be seen only by you. Learn more ›
×
You can save this tab as Personal to edit and correct it or add notes. All changes will be seen only by you. Learn more »
launch autoscroll
font size
0
reset
how to read this tab
guitar tuner
edit
Autoscroll
slow
fast
+/-
esc
set tempo
stop
I just tried to play it by my ear so here it is..:) Remember this can be played on bass too.. :)


e|------------------------------------------|
B|------------------------------------------|
G|------------------------------------------|
D|-------3-0--------------------------------|
A|-3---------3------3-1-00-1h3------0-------|
E|----1--------1----------------1-3---------|

e|-----------------------------------------------------------|
B|-----------------------------------------------------------|
G|-----------------------------------------------------------|
D|------3-0------------------------------------------3-5-3---|
A|-3--------3-----3-1-00-1h3-----00-1h3-------00-1h3---------|
E|---1--------1--------------1-3---------1-3-----------------|

:) Please rate..     Tabbed by Emil K. Christensen.. :)

            
            
Suggest correction
Creating personal tab
Creating personal tab
You can edit any tab online and save it as your Personal.

You can edit, replace or remove any tab part or add personal notes – all changes will be seen only by you.

Personal tabs can be accessed anytime from any device, even offline.
Learn more »
comments
print report bad tab
7 comments total. Showing first comments.
+2 reply
x95_D-Roc_95x 81 Oct 20, 2008 03:16 PM

nice

+1 reply
juavma 41 Dec 28, 2008 09:36 AM

it rock

+1 reply
Bhuggy 20 Jan 14, 2009 12:21 PM

awesome

guest
Wanna post a correction for this tab? Suggest correction