Oops, an error
Loading. Please wait.

The Rainbooms - Awesome As I Wanna Be tab

202 views 1 this week
no commentswrite comment
1 2 3 4 5
2 more votes to show rating
add to favorites
×
Save as Personal and add changes to this tab that will be seen only by you. Learn more ›
×
You can save this tab as Personal to edit and correct it or add notes. All changes will be seen only by you. Learn more »
launch autoscroll
font size
0
reset
how to read this tab
guitar tuner
edit
Autoscroll
slow
fast
+/-
esc
set tempo
stop
Author
Difficulty
In Hasbro's infinite wisdom they decided to have two guitars playing in a song played by a band that only 
has a single instrument, so excuse the fact that there are two guitar parts even though there is only a 
single guitarist in The Rainbooms. 


[Intro]
Guitar 1
e|---------------------------------------------------|
B|---------------------------------------------------|
G|---------------------------------------------------|
D|--4-5-4-0----4-5-7-0----4-5-4-0----3-3-3-3-2-2-0---| play twice
A|---------------------------------------------------|
E|---------------------------------------------------|

Guitar 2
e|----------------------------------------------------|
B|----------------------------------------------------|
G|----------------------------------------------------|
D|----------------------------------3-3-3-3-2-2-2-2---| play at same time ass '3-3-3-3-2-2-0'
A|----------------------------------3-3-3-3-2-2-2-2---|
E|----------------------------------1-1-1-1-0-0-0-0---|


[Verse] (Only rhythm guitar)
e|----------------------------------------|
B|----------------------------------------|
G|--7-7----4-4----------------------------|
D|--7-7----4-4----5-5----3-3-3-3-2-2-2-2--| repeat through verse x2
A|--5-5----2-2----5-5----3-3-3-3-2-2-2-2--|
E|----------------3-3----1-1-1-1-0-0-0-0--|


[Chorus] (Both guitars at same time)
e|---------------------------------------|
B|---------------------------------------|
G|--7---------------------10------9------|
D|--7-(x8)-7-------9------10-(x4)-9-(x4)-| play twice through chorus
A|--5------7-(x8)--9-(x8)-8-------7------|
E|---------5-------7---------------------|


[Solo] - Rhythm Guitar Backing
e|---------------------------|
B|---------------------------|
G|---------------------------|
D|--7-(x24)-3-3-3-3-2-2-2-2--| play twice behind solo
A|--5-------3-3-3-3-2-2-2-2--|
E|----------1-1-1-1-0-0-2-2--|

Solo - Lead Guitar
e|-14h15h17-(x6)-17-15-14--------------------------------------------------------|
B|------------------------17-14----------14-15-14--------------------------------|
G|------------------------------16-14-16----------16-14-16p14-16p14-16-11-12-11--|
D|-------------------------------------------------------------------------------|
A|-------------------------------------------------------------------------------|
E|-------------------------------------------------------------------------------|

e|---------------------10-10-9-10-12--14--14-12-10----------13p10(x3)-13p12p10--|
B|-------------------------------------------------12-10-12---------------------|
G|-10-10------------------------------------------------------------------------|
D|-------12-11-9-11-12----------------------------------------------------------| please note not all timings
A|------------------------------------------------------------------------------| are accurate
E|------------------------------------------------------------------------------| listen to the song to work
                                                                                  out proper timings

[Verse] (Only rhythm guitar)
e|----------------------------------------|
B|----------------------------------------|
G|--7-7----4-4----------------------------|
D|--7-7----4-4----5-5----3-3-3-3-2-2-2-2--| repeat through verse x2
A|--5-5----2-2----5-5----3-3-3-3-2-2-2-2--|
E|----------------3-3----1-1-1-1-0-0-0-0--|


[Chorus] (Both guitars at same time)
e|---------------------------------------|
B|---------------------------------------|
G|--7---------------------10------9------|
D|--7-(x8)-7-------9------10-(x4)-9-(x4)-| play twice through chorus
A|--5------7-(x8)--9-(x8)-8-------7------|
E|---------5-------7---------------------|


End On
e|-------|
B|-------|
G|--7----|
D|--7----| fade out
A|--5----|
E|-------|


************************************

| h   Hammer-on
| p   Pull-off

************************************

            
            
Suggest correction
Creating personal tab
Creating personal tab
You can edit any tab online and save it as your Personal.

You can edit, replace or remove any tab part or add personal notes – all changes will be seen only by you.

Personal tabs can be accessed anytime from any device, even offline.
Learn more »
Give kudos to tab author, rate the tab!
1 2 3 4 5
comments
print report bad tab
guest
You may want to rate the tab now too:
select rating
Wanna post a correction for this tab? Suggest correction