Oops, an error
Loading. Please wait.

The Simpsons Theme bass

version 2
version 2

Whole song

Interactive

56,994 views 30 this week
6 commentsread comments
1 2 3 4 5
x 24
add to favorites
×
Save as Personal and add changes to this tab that will be seen only by you. Learn more ›
×
You can save this tab as Personal to edit and correct it or add notes. All changes will be seen only by you. Learn more »
launch autoscroll
font size
0
reset
guitar tuner
edit
Autoscroll
slow
fast
+/-
esc
set tempo
stop
Author
Unregistered
The Simpsons - Theme
Submitted By: Gabe


G|-----1-4-2----------------------------------|
D|-0-4------4-0-----------------0-0-0-0-------|
A|-------------2-----0-------0-3--------------|
E|--------------4-4-4--4-4-4------------------|

===========Themes/miss. - The Simpsons Bass


Tuning: Standard (E A D G B E)

this is my first tab but give it a try


G-------------7--------------------------------------------------------|
D-----6-8-------9---6--------------------------------------------------|
A--7----------------------7--------------------------------6--7777-----|
E-----------------------------9--666-7---9--666-7----------------------|
===========simpsons theme song


g7---------------------------------|
d--6896----------------------------|
a------7--7--6--776-777 9667--9667-|
e----------------------------------|

this is all i got repeat if you want
enjoy!

            
            
Suggest correction
Creating personal tab
Creating personal tab
You can edit any tab online and save it as your Personal.

You can edit, replace or remove any tab part or add personal notes – all changes will be seen only by you.

Personal tabs can be accessed anytime from any device, even offline.
Learn more »
comments
print report bad tab
6 comments total. Showing first comments.
+2 reply
michael_bryant 202 Jan 09, 2004 07:00 PM

Great now every time i watch the Simpsons i can play along!

+2 reply
RHCP_25 20 Apr 16, 2006 01:37 AM

the 1st one is the best i think

+1 reply
Delboy_360 10 Sep 12, 2007 09:12 AM

awesome dude!! MAKE MORE

guest
Wanna post a correction for this tab? Suggest correction